>
 >
Smile So Wide

Smile So Wide Guitar Tabs

Bag Of Toys - Smile So Wide chords, tabs, tablatures, lyrics

Guitar lessons | Add/correct | Request | Top 50 tabs Artists:  A B C D E F G H I J K L M N O P Q R S T U V W X Y Z 0-9

Smile So Wide Guitar Tabs – Bag Of Toys

CD, Sheet music, Poster

Do you like Smile So Wide? Share with your friends now
Bass TabsTabs
-------------------------------------------------------------------------------
-------------------------------------------------------------------------------

Tuning: EADGBe

Intro/Main Riff:

e|-------------------------------------------------------|
B|-------------------------------------------------------|
G|--11p9/7-9-7~---------------11p9/7-9-7~---------7h9-7~-|
D|-----------------7h9-7~--------------------7h9---------|
A|-------------------------------------------------------|
E|-------------------------------------------------------|

Verse: (0:08) [Bass Only]

e|-------------|
B|-------------|
G|-------------|
D|-------------|
A|-------------|
E|-------------|

Pre Chorus: (0:29)
e|--------------------------------------|
B|--------------------------------------|
G|--7~-------5~-------4~-------7~-------|
D|--7~-------5~-------5~-------7~-------|
A|--5~-------3~-------5~-------5~-------|
E|--------------------3~----------------|

e|----------------------------------------|
B|----------------------------------------|
G|--7~-------5~-------4~-------(4)--------|
D|--7~-------5~-------5~-------(5)--------|
A|--5~-------3~-------5~-------(5)--------|
E|--------------------3~-------(3)--------|

Chorus: (0:37) (x2)
This is how I play it, I think it sounds better

      1 + 2 + 3 + 4 +   1 + 2 + 3 + 4 +   1 + 2 + 3 + 4 +   1 + 2 + 3 + 4 +
e||-------------------|-----------------|-----------------|-----------------|
B||-------------------|-----------------|-----------------|-----------------|
G||.--7-7-7-7-x-x-x-x-|-x-5-5-5-r-5-5-5-|-4-4-4-4---------|-x-7-7-7-r-7-7-7-|
D||.--7-7-7-7-x-x-x-x-|-x-5-5-5-r-5-5-5-|-5-5-5-5-x-x-x-x-|-x-7-7-7-r-7-7-7-|
A||---5-5-5-5-x-x-x-x-|-x-3-3-3-r-3-3-3-|-5-5-5-5-x-x-x-x-|-x-5-5-5-r-5-5-5-|
E||-------------------|-----------------|-3-3-3-3-x-x-x-x-|-----------------|
      d u d u d u d u   d u d u   u d u etc...

    1 + 2 + 3 + 4 +   1 + 2 + 3 + 4 +   1 + 2 + 3 + 4 +   1 + 2 + 3 + 4 +
e|------------------|-----------------|-----------------|------------------||
B|------------------|-----------------|-----------------|------------------||
G|--7-7-7-7-x-x-x-x-|-x-5-5-5-r-5-5-5-|-4---------------|-(4)-------------.||
D|--7-7-7-7-x-x-x-x-|-x-5-5-5-r-5-5-5-|-5---------------|-(5)-------------.||
A|--5-5-5-5-x-x-x-x-|-x-3-3-3-r-3-3-3-|-5---------------|-(5)--------------||
E|------------------|-----------------|-3---------------|-(3)--------------||

Main Riff: (0:58)

e|-------------------------------------------------------|
B|-------------------------------------------------------|
G|--11p9/7-9-7~---------------11p9/7-9-7~---------7h9-7~-|
D|-----------------7h9-7~--------------------7h9---------|
A|-------------------------------------------------------|
E|-------------------------------------------------------|

Verse: (1:06) [Bass Only]

e|-------------|
B|-------------|
G|-------------|
D|-------------|
A|-------------|
E|-------------|

Pre Chorus: (1:22)

e|--------------------------------------|
B|--------------------------------------|
G|--7~-------5~-------4~-------7~-------|
D|--7~-------5~-------5~-------7~-------|
A|--5~-------3~-------5~-------5~-------|
E|--------------------3~----------------|

e|--------------------------------------|
B|--------------------------------------|
G|--7~-------5~-------4~-------7~-------|
D|--7~-------5~-------5~-------7~-------|
A|--5~-------3~-------5~-------5~-------|
E|--------------------3~----------------|

e|----------------------------------------|
B|----------------------------------------|
G|--7~-------5~-------4~-------(4)--------|
D|--7~-------5~-------5~-------(5)--------|
A|--5~-------3~-------5~-------(5)--------|
E|--------------------3~-------(3)--------|

Chorus: (1:36) (x2)

      1 + 2 + 3 + 4 +   1 + 2 + 3 + 4 +   1 + 2 + 3 + 4 +   1 + 2 + 3 + 4 +
e||-------------------|-----------------|-----------------|-----------------|
B||-------------------|-----------------|-----------------|-----------------|
G||.--7-7-7-7-x-x-x-x-|-x-5-5-5-r-5-5-5-|-4-4-4-4---------|-x-7-7-7-r-7-7-7-|
D||.--7-7-7-7-x-x-x-x-|-x-5-5-5-r-5-5-5-|-5-5-5-5-x-x-x-x-|-x-7-7-7-r-7-7-7-|
A||---5-5-5-5-x-x-x-x-|-x-3-3-3-r-3-3-3-|-5-5-5-5-x-x-x-x-|-x-5-5-5-r-5-5-5-|
E||-------------------|-----------------|-3-3-3-3-x-x-x-x-|-----------------|
      d u d u d u d u   d u d u   u d u etc...

    1 + 2 + 3 + 4 +   1 + 2 + 3 + 4 +   1 + 2 + 3 + 4 +   1 + 2 + 3 + 4 +
e|------------------|-----------------|-----------------|------------------||
B|------------------|-----------------|-----------------|------------------||
G|--7-7-7-7-x-x-x-x-|-x-5-5-5-r-5-5-5-|-4---------------|-(4)-------------.||
D|--7-7-7-7-x-x-x-x-|-x-5-5-5-r-5-5-5-|-5---------------|-(5)-------------.||
A|--5-5-5-5-x-x-x-x-|-x-3-3-3-r-3-3-3-|-5---------------|-(5)--------------||
E|------------------|-----------------|-3---------------|-(3)--------------||

Solo: (1:55)

e|-------------------------------------------------------|
B|-------------------------------------------------------|
G|----------------------------------------------2-2h4-2--|
D|--------00000-2p0-00-2/4-0---------00000--2/4----------|
A|--0h2h5----------------------0h2h5---------------------|
E|-------------------------------------------------------|

e|----------------------------5-5/10~-|
B|-----3---3-5b~--5rp3-3-5/7----------|
G|-2/4---4------------4---------------|
D|------------------------------------|
A|------------------------------------|
E|------------------------------------|

e|----10--10-12-12b~--12rp10--10-----------------------------------------==------------|
B|-/12--12------------------12--12-10-10-10-10-8-7--7-----------------==---------------|
G|---------------------------------------11-11-9-7--7----------------------------------|
D|------------------------------------------------------2h4--2~--------000-2p0---------|
A|---------------------------------------------------------------0h2h5---------2--2/5~-|
E|-------------------------------------------------------------------------==----------|

Bridge: (2:14)

e|--------------------------------------|
B|--------------------------------------|
G|--7~-------5~-------4~-------7~-------|
D|--7~-------5~-------5~-------7~-------|
A|--5~-------3~-------5~-------5~-------|
E|--------------------3~----------------|

e|-------------------------------|
B|-------------------------------|
G|--7~-------5~-------4----4-----|
D|--7~-------5~-------5----5-----|
A|--5~-------3~-------5----5-----|
E|--------------------3----3-----|

e|--------------------------------------|
B|--------------------------------------|
G|--7~-------5~-------4~-------7~-------|
D|--7~-------5~-------5~-------7~-------|
A|--5~-------3~-------5~-------5~-------|
E|--------------------3~----------------|

e|----------------------------------------|
B|----------------------------------------|
G|--7~-------5~-------4~-------(4)--------|
D|--7~-------5~-------5~-------(5)--------|
A|--5~-------3~-------5~-------(5)--------|
E|--------------------3~-------(3)--------|

Chorus: (2:33) (x2)

      1 + 2 + 3 + 4 +   1 + 2 + 3 + 4 +   1 + 2 + 3 + 4 +   1 + 2 + 3 + 4 +
e||-------------------|-----------------|-----------------|-----------------|
B||-------------------|-----------------|-----------------|-----------------|
G||.--7-7-7-7-x-x-x-x-|-x-5-5-5-r-5-5-5-|-4-4-4-4---------|-x-7-7-7-r-7-7-7-|
D||.--7-7-7-7-x-x-x-x-|-x-5-5-5-r-5-5-5-|-5-5-5-5-x-x-x-x-|-x-7-7-7-r-7-7-7-|
A||---5-5-5-5-x-x-x-x-|-x-3-3-3-r-3-3-3-|-5-5-5-5-x-x-x-x-|-x-5-5-5-r-5-5-5-|
E||-------------------|-----------------|-3-3-3-3-x-x-x-x-|-----------------|
      d u d u d u d u   d u d u   u d u etc...

    1 + 2 + 3 + 4 +   1 + 2 + 3 + 4 +   1 + 2 + 3 + 4 +   1 + 2 + 3 + 4 +
e|------------------|-----------------|-----------------|------------------||
B|------------------|-----------------|-----------------|------------------||
G|--7-7-7-7-x-x-x-x-|-x-5-5-5-r-5-5-5-|-4---------------|-(4)-------------.||
D|--7-7-7-7-x-x-x-x-|-x-5-5-5-r-5-5-5-|-5---------------|-(5)-------------.||
A|--5-5-5-5-x-x-x-x-|-x-3-3-3-r-3-3-3-|-5---------------|-(5)--------------||
E|------------------|-----------------|-3---------------|-(3)--------------||

Main Riff: (2:53)

e|-------------------------------------------------------|
B|-------------------------------------------------------|
G|--11p9/7-9-7~---------------11p9/7-9-7~---------7h9-7~-|
D|-----------------7h9-7~--------------------7h9---------|
A|-------------------------------------------------------|
E|-------------------------------------------------------|

Outro 1: (3:02) [I'm almost positive it's Bass Only]

e|-------------|
B|-------------|
G|-------------|
D|-------------|
A|-------------|
E|-------------|

Outro 2: (3:12)

e|---------------------------|
B|---------------------------|
G|--7--7---5--5---4--4-x--7~~|
D|--7--7---5--5---5--5-x--7~~|
A|--5--5---3--3---5--5-x--5~~|
E|----------------3--3-------|




| /  slide up
| \  slide down
| b  bend
| r  release
| h  hammer-on
| p  pull-off
| ~  vibrato
| +  harmonic
| x  Mute note
===============================================================================





Comments


Popular Bag Of Toys tabs & chords
Smile So Wide Bass Tabs
Share Chords
The Raven Chords
Roll With The Punches Tabs
Surf Song Tabs
Surf Song 1 Tabs
Surf Song Intro Tabs
Last Wave Ukulele
Share Ukulele
The Raven Ukulele


Song lyrics



↑ Back to top | Tablatures and chords are parodies/interpretations of the original songs. You may use it for private study, scholarship, research or language learning purposes only
© 2014 AZChords.com Contact us | Privacy policy | DMCA | Add/correct tabs | Request tabs | Top 50 tabs