» » »

Bag Of Toys, Roll With The Punches Tabs (ver.1)

Artists:  A B C D E F G H I J K L M N O P Q R S T U V W X Y Z # 

Roll With The Punches Tabs (ver.1)

Bag Of Toys Tabs
Rating:
0/5 (0 votes)
Roll With The Punches lessons Tabs too difficult? Try these video lessons and learn fast
                
Took me a while, i know how it is to teach yourself im completely self taught so i tried
explain in as much detail as i could. Its my first tab, sounds 100% to my friends, but
me know, mistakes are the best teachers.

Listen to the song for the rhythm, its catchy and fun as hell to play. i didnt add the
cause everyone should be creative, thats what the solos for, just play over the notes in
chords that are in the song and you should manifest somethin pretty stellar, for the 
through the verses mute with a downstoke first then hold down the chords on the
reggae, ska style kinda strummin

e|-------------------------------------------------------------|
B|-------------------------------------------------------------|
G|-------------------------------------------------------------|
D|-------------------------------------------------------------|
A|----------------2b--------------------2b---------------------|
E|-4-4-xxx4-0-2-4----4---4-4-xxx4-0-2-4-----4------------------|

e|-------------------------------------------------------------|
B|-------------------------------------------------------------|
G|-------------------------------------------------------------|
D|----------------2b-------------4b--4-2---2-------------------|
A|-4-4-xxx4---2-4----4---4-4-xxx---------4---4-----------------|
E|----------4--------------------------------------------------|


 G#             C#          D#

e:x-4       x-4        x-6-|
B:x-6       x-4        x-8-|
G:x-6      x-5        x-8--|
D:x-6      x-6        x-8--|
A:x-4      x-6        x-6--|
E:x-4       x-4        x-6-|


(upstroke strum)
G#
Well I'm a poor man/I feel no pain
Struggled half of my life by going against the grain
C#
But I think I guess I only get a one chance at this
I'm gonna diiig every single second I've got, I've got to live
G#
Another second/another went by
I killed another second, minute, hour, waisting my life
C#
I'm gonna spend my waking hours doing something with myself
playing with the cards from the deck I'm dealt


(pick over chords)
G#
gotta roll with the punches/run down the highway(lalalalalalalalala)
C#
Gonna turn all the pages/Gonna do it my way(lalalalalalalalalalala)


(upstroke strum)
G#
I got my surfboard/got the full tank of gas
I'm gonna say goodbye to everybody as I pass
C#
There gonna wonder where I'm going and when I'll be back
As they waist away their lives working for the man


(upstroke strum)
G#
I'll get some sh*t job/when I need some cash
I can always strum my guitar when I need a stash
C#
I'm gonna check out what we've got on the far west coast
californias reppin, so is mex-i-co


(pick over chords)
G#                              C#
so is mex-i-co
lalalalalalalalallaalalala-la--lala


(down strum with beat)
C#
I'll go to Ocean Beach, Point Reyes, Waddel Creek, Steamer Lane
G#
Fort Point, Cardiff Reef, Ocean Side, Pacific Beach
C#
Morro Bay, Manhattan Beach, Rockaway, La Jolla Reefs
G#
Todos Santos, Rosarito, Ensenada, Down to Cabo....


(pick over chords)
D#.....................C#
Yeah, You might find me there...
D#.....................G#
Yeah, You might find me there...


SOLO------play that sh*t


(down strum with the beat)
G#
I won't pay taxes/I'll pay no rent
I'll never vote again, so f**k the government
C#
well, I'll get myself some piece of sh*t micro bus
I'm gonna live off the coast, the most of both of us


(upstroke strum)
G#
I won't need TV/Or Girlfriend
I've got a big ol' stack of porn-o that would scare my friends
C#
Well I think I'll sleep in every morning and I'll surf all day
Maybe strum my guitar, I think I'll live that way...


(pick over chords)
G#
gotta roll with the punches/live on down the highway(lalalalalalalalala)
C#
Gonna turn all the pages/Gonna do it my way(lalalalalalalalalalala)


(down strum with beat)
C#
I'll go to Ocean Beach, Point Reyes, Waddel Creek, Steamer Lane
G#
Fort Point, Cardiff Reef, Ocean Side, Pacific Beach
C#
Morro Bay, Manhattan Beach, Rockaway, La Jolla Reefs
G#
Todos Santos, Rosarito, Ensenada, Down to Cabo....


(pick over chords)
D#.....................C#
Yeah, You might find me there...
D#.....................G#
Yeah, You might find me there...

Play intro again 2x

(easy strummin)
D#.....................C#
Yeah, You might find me there...
D#.....................G#
Yeah, You might find me there...

e|---------------------------------------------------------------|
B|---------------------------------------------------------------|
G|---------------------------------------------------------------|
D|---------------------------------------------------------------|
A|----------------2b---------------------------------------------|
E|-4-4-xxx4-0-2-4----4---4-4-xxx4/-------------------------------|
            
Submit corrections

comments powered by Disqus
↑ Back to top | Bag Of Toys Tabs for Roll With The Punches. Lyrics for acoustic guitar and electric guitar. Tablatures and chords are parodies/interpretations of the original songs. You may use it for private study, scholarship, research or language learning purposes only