>
 >
You 1

You 1 Guitar Tabs

Bad Religion - You 1 chords, tabs, tablatures, lyrics

Guitar lessons | Add/correct | Request | Top 50 tabs Artists:  A B C D E F G H I J K L M N O P Q R S T U V W X Y Z 0-9

You 1 Guitar Tabs – Bad Religion

CD, Sheet music, Poster

Do you like You 1? Share with your friends now
Bass TabsBass Tabs v2Bass Tabs v3ChordsTabsTabs v2Tabs v3
E|-----------------------------------------------------------------|
B|-----------------------------------------------------------------|
G|-----------------------------------------------------------------|
D|-------------------------------------------------7-7-7-7-7-7-7-7-|
A|-7-7-7-8-7-7-7-8-7-7-7-8-7-7-7-8-7-7-7-8-7-7-7-8-7-7-7-7-7-7-7-7-|
E|-5-5-5-6-5-5-5-6-5-5-5-6-5-5-5-6-5-5-5-6-5-5-5-6-5-5-5-5-5-5-5-5-|

E|-----------------------------------------------------------------|
B|-----------------------------------------------------------------|
G|----------------1010101010101010-5-5-5-5-5-5-5-5-----------------|
D|-7-7-7-7-7-7-7-71010101010101010-5-5-5-5-5-5-5-5-5-5-5-5-5-5-5-5-|
A|-7-7-7-7-7-7-7-7-8-8-8-8-8-8-8-8-3-3-3-3-3-3-3-3-5-5-5-5-5-5-5-5-|
E|-5-5-5-5-5-5-5-5---------------------------------3-3-3-3-3-3-3-3-|

E-|-------------------------------------------------------------------------------------------------|
B-|-------------------------------------------------------------------------------------------------|
G-|-------------------------10-10-10-10-10-10-10-10--5--5--5--5--5--5--5--5--7--7--7--7--9--9--9--9-|
D-|--7--7--7--7--7--7--7--7-10-10-10-10-10-10-10-10--5--5--5--5--5--5--5--5--7--7--7--7--9--9--9--9-|
A-|--7--7--7--7--7--7--7--7--8--8--8--8--8--8--8--8--3--3--3--3--3--3--3--3--5--5--5--5--7--7--7--7-|
E-|--5--5--5--5--5--5--5--5-------------------------------------------------------------------------|


E-|-------------------------------------------------------------------------------------------------|
B-|-------------------------------------------------------------------------------------------------|
G-|-------------------------10-10-10-10-10-10-10-10--5--5--5--5--5--5--5--5-------------------------|
D-|--7--7--7--7--7--7--7--7-10-10-10-10-10-10-10-10--5--5--5--5--5--5--5--5--5--5--5--5--5--5--5--5-|
A-|--7--7--7--7--7--7--7--7--8--8--8--8--8--8--8--8--3--3--3--3--3--3--3--3--5--5--5--5--5--5--5--5-|
E-|--5--5--5--5--5--5--5--5--------------------------------------------------3--3--3--3--3--3--3--3-|

E-|-------------------------------------------------------------------------------------------------|
B-|-------------------------------------------------------------------------------------------------|
G-|-------------------------10-10-10-10-10-10-10-10--5--5--5--5--5--5--5--5--7--7--7--7--9--9--9--9-|
D-|--7--7--7--7--7--7--7--7-10-10-10-10-10-10-10-10--5--5--5--5--5--5--5--5--7--7--7--7--9--9--9--9-|
A-|--7--7--7--7--7--7--7--7--8--8--8--8--8--8--8--8--3--3--3--3--3--3--3--3--5--5--5--5--7--7--7--7-|
E-|--5--5--5--5--5--5--5--5-------------------------------------------------------------------------|



E-|-------------------------------------------------------------------------------------------------|
B-|-------------------------------------------------------------------------------------------------|
G-|-10-10-10-10-10-10-10-10--9--9--9--9--9--9--9--9-10-10-10-10-10-10-10-10--9--9-10-10-12-12-10-10-|
D-|-10-10-10-10-10-10-10-10--9--9--9--9--9--9--9--9-10-10-10-10-10-10-10-10--9--9-10-10-12-12-10-10-|
A-|--8--8--8--8--8--8--8--8--7--7--7--7--7--7--7--7--8--8--8--8--8--8--8--8--7--7--8--8-10-10--8--8-|
E-|-------------------------------------------------------------------------------------------------|

E-|-------------------------------------------------------------------------------------------------|
B-|-------------------------------------------------------------------------------------------------|
G-|--------------------------------------------------------------------------7--7--7--7--9--9--9--9-|
D-|--7--7--7--7--3--3--3--3--5--5--5--5--7--7--7--7--7--7--7--7--3--3--3--3--7--7--7--7--9--9--9--9-|
A-|--7--7--7--7--3--3--3--3--5--5--5--5--7--7--7--7--7--7--7--7--3--3--3--3--5--5--5--5--7--7--7--7-|
E-|--5--5--5--5--1--1--1--1--3--3--3--3--5--5--5--5--5--5--5--5--1--1--1--1-------------------------|

E-|-------------------------------------------------------------------------------------------------------------------------|
B-|-------------------------------------------------------------------------------------------------------------------------|
G-|-------------------------------------------------------------------------------------------------------------------------|
D-|--7--7--7--7--3--3--3--3--5--5--5--5--7--7--7--7--7--7--7--7--3--3--3--3--2--2--2--2--2--2--2--2--2--2--2--2--2--2--2--2-|
A-|--7--7--7--7--3--3--3--3--5--5--5--5--7--7--7--7--7--7--7--7--3--3--3--3--2--2--2--2--2--2--2--2--2--2--2--2--2--2--2--2-|
E-|--5--5--5--5--1--1--1--1--3--3--3--3--5--5--5--5--5--5--5--5--1--1--1--1--0--0--0--0--0--0--0--0--0--0--0--0--0--0--0--0-|

E-|-------------------------------------------------------------------------------------------------|
B-|-------------------------------------------------------------------------------------------------|
G-|-------------------------------------------------------------------------------------------------|
D-|--------------------------------------------------------------------------7--7--7--7--7--7--7--7-|
A-|--7--7--7--8--7--7--7--8--7--7--7--8--7--7--7--8--7--7--7--8--7--7--7--8--7--7--7--7--7--7--7--7-|
E-|--5--5--5--6--5--5--5--6--5--5--5--6--5--5--5--6--5--5--5--6--5--5--5--6--5--5--5--5--5--5--5--5-|

E-|-------------------------------------------------------------------------------------------------|
B-|-------------------------------------------------------------------------------------------------|
G-|-------------------------10-10-10-10-10-10-10-10--5--5--5--5--5--5--5--5-------------------------|
D-|--7--7--7--7--7--7--7--7-10-10-10-10-10-10-10-10--5--5--5--5--5--5--5--5--5--5--5--5--5--5--5--5-|
A-|--7--7--7--7--7--7--7--7--8--8--8--8--8--8--8--8--3--3--3--3--3--3--3--3--5--5--5--5--5--5--5--5-|
E-|--5--5--5--5--5--5--5--5--------------------------------------------------3--3--3--3--3--3--3--3-|

E-|-------------------------------------------------------------------------------------------------|
B-|-------------------------------------------------------------------------------------------------|
G-|-------------------------10-10-10-10-10-10-10-10--5--5--5--5--5--5--5--5--7--7--7--7--9--9--9--9-|
D-|--7--7--7--7--7--7--7--7-10-10-10-10-10-10-10-10--5--5--5--5--5--5--5--5--7--7--7--7--9--9--9--9-|
A-|--7--7--7--7--7--7--7--7--8--8--8--8--8--8--8--8--3--3--3--3--3--3--3--3--5--5--5--5--7--7--7--7-|
E-|--5--5--5--5--5--5--5--5-------------------------------------------------------------------------|


E-|-------------------------------------------------------------------------------------------------|
B-|-------------------------------------------------------------------------------------------------|
G-|-------------------------10-10-10-10-10-10-10-10--5--5--5--5--5--5--5--5-------------------------|
D-|--7--7--7--7--7--7--7--7-10-10-10-10-10-10-10-10--5--5--5--5--5--5--5--5--5--5--5--5--5--5--5--5-|
A-|--7--7--7--7--7--7--7--7--8--8--8--8--8--8--8--8--3--3--3--3--3--3--3--3--5--5--5--5--5--5--5--5-|
E-|--5--5--5--5--5--5--5--5--------------------------------------------------3--3--3--3--3--3--3--3-|

E-|-------------------------------------------------------------------------------------------------|
B-|-------------------------------------------------------------------------------------------------|
G-|--------------------------9--9--9--9--9--9--9--9--5--5--5--5--5--5--5--5--7--7--7--7--9--9--9--9-|
D-|--7--7--7--7--7--7--7--7--9--9--9--9--9--9--9--9--5--5--5--5--5--5--5--5--7--7--7--7--9--9--9--9-|
A-|--7--7--7--7--7--7--7--7--7--7--7--7--7--7--7--7--3--3--3--3--3--3--3--3--5--5--5--5--7--7--7--7-|
E-|--5--5--5--5--5--5--5--5-------------------------------------------------------------------------|


E-|-------------------------------------------------------------------------------------------------|
B-|-------------------------------------------------------------------------------------------------|
G-|-10-10-10-10-10-10-10-10--9--9--9--9--9--9--9--9-10-10-10-10-10-10-10-10--9--9-10-10-12-12-10-10-|
D-|-10-10-10-10-10-10-10-10--9--9--9--9--9--9--9--9-10-10-10-10-10-10-10-10--9--9-10-10-12-12-10-10-|
A-|--8--8--8--8--8--8--8--8--7--7--7--7--7--7--7--7--8--8--8--8--8--8--8--8--7--7--8--8-10-10--8--8-|
E-|-------------------------------------------------------------------------------------------------|

E-|-------------------------------------------------------------------------------------------------|
B-|-------------------------------------------------------------------------------------------------|
G-|--------------------------------------------------------------------------7--7--7--7--9--9--9--9-|
D-|--7--7--7--7--3--3--3--3--5--5--5--5--7--7--7--7--7--7--7--7--3--3--3--3--7--7--7--7--9--9--9--9-|
A-|--7--7--7--7--3--3--3--3--5--5--5--5--7--7--7--7--7--7--7--7--3--3--3--3--5--5--5--5--7--7--7--7-|
E-|--5--5--5--5--1--1--1--1--3--3--3--3--5--5--5--5--5--5--5--5--1--1--1--1-------------------------|

E-|-------------------------------------------------------------------------------------------------------------------------|
B-|-------------------------------------------------------------------------------------------------------------------------|
G-|-------------------------------------------------------------------------------------------------------------------------|
D-|--7--7--7--7--3--3--3--3--5--5--5--5--7--7--7--7--7--7--7--7--3--3--3--3--2--2--2--2--2--2--2--2--2--2--2--2--2--2--2--2-|
A-|--7--7--7--7--3--3--3--3--5--5--5--5--7--7--7--7--7--7--7--7--3--3--3--3--2--2--2--2--2--2--2--2--2--2--2--2--2--2--2--2-|
E-|--5--5--5--5--1--1--1--1--3--3--3--3--5--5--5--5--5--5--5--5--1--1--1--1--0--0--0--0--0--0--0--0--0--0--0--0--0--0--0--0-|


E-|-------------------------------------------------------------------------------------------------|
B-|-------------------------------------------------------------------------------------------------|
G-|--------------------------------------5--5--5--5--------------------------------------5--5--4--4-|
D-|--7--7--7--7--3--3--3--3--5--5--5--5--5--5--5--5--7--7--7--7--3--3--3--3--5--5--5--5--5--5--4--4-|
A-|--7--7--7--7--3--3--3--3--5--5--5--5--3--3--3--3--7--7--7--7--3--3--3--3--5--5--5--5--3--3--2--2-|
E-|--5--5--5--5--1--1--1--1--3--3--3--3--------------5--5--5--5--1--1--1--1--3--3--3--3-------------|

E-|-------------------------------------------------------------------------------------------------|
B-|-------------------------------------------------------------------------------------------------|
G-|--------------------------------------5--5--5--5-------------------------------------------------|
D-|--7--7--7--7--3--3--3--3--5--5--5--5--5--5--5--5--7--7--7--7--3--3--3--3--2--2--2--2--2--2--2--2-|
A-|--7--7--7--7--3--3--3--3--5--5--5--5--3--3--3--3--7--7--7--7--3--3--3--3--2--2--2--2--2--2--2--2-|
E-|--5--5--5--5--1--1--1--1--3--3--3--3--------------5--5--5--5--1--1--1--1--0--0--0--0--0--0--0--0-|

E-|----------------------|
B-|----------------------|
G-|----------------------|
D-|--2-----3-----5-----3-|
A-|--2-----3-----5-----3-|
E-|--0-----1-----3-----1-|

E-|---------------|
B-|-------------6-|
G-|-----------5---|
D-|--------4------|
A-|-----3---------|
E-|--3------------|





Comments


Popular Bad Religion tabs & chords
52 Seconds Bass Tabs
New Dark Ages Bass Tabs
Part Bass Tabs
Los Angeles Is Burning 1 Chords
Watch It Die Chords
A Walk Tabs
Them And Us 1 Tabs
There Will Be A Way 1 Tabs
Whisper In Time Tabs
How Much Is Enough Ukulele


Song lyrics



↑ Back to top | Tablatures and chords are parodies/interpretations of the original songs. You may use it for private study, scholarship, research or language learning purposes only
© 2014 AZChords.com Contact us | Privacy policy | DMCA | Add/correct tabs | Request tabs | Top 50 tabs