» » »

Bad Religion, You Tabs (ver.1)

Artists:  A B C D E F G H I J K L M N O P Q R S T U V W X Y Z # 

You Tabs (ver.1)

Bad Religion Tabs
Rating:
0/5 (0 votes)
You lessons Tabs too difficult? Try these video lessons and learn fast
                By Bad Religion


Intro
Bass riff on guitar:
E)--------------------------------|
B)--------------------------------|
G)--------------------------------|
D)--------------------------------|
A)-------5-7-5----------5-7-5-----|
E)-5-7-8------8-7-5-7-8-------8-7-|
^--------------2x------------^

Guitar Part*:
E)---------------------------------|
B)---------------------------------|
G)---------------------------------|
D)-7-7-7-7-7-7-7/8-7-7-7-7-7-7-7/8-|
A)-7-7-7-7-7-7-7/8-7-7-7-7-7-7-7/8-|
E)-5-5-5-5-5-5-5/6-5-5-5-5-5-5-5/6-|
^-------------2x---------------^

Verse* ("There's a place where............")
E)----------------------------------------------------------------- 
B)----------------------------------------------------------------- 
G)-----------------10-10-10-10-10-10-10-10------------------------- 
D)-7-7-7-7-7-7-7-7-10-10-10-10-10-10-10-10-10-10-10-10-10-10-10-10- 
A)-7-7-7-7-7-7-7-7--8--8--8--8--8--8--8--8-10-10-10-10-10-10-10-10- 
E)-5-5-5-5-5-5-5-5-------------------------8--8--8--8--8--8--8--8-- 

E)--------------------------------------------------------- 
B)--------------------------------------------------------- 
G)---------------------------------10-10-10-10-10-10-10-10- 
D)-5-5-5-5-5-5-5-5-7-7-7-7-7-7-7-7-10-10-10-10-10-10-10-10- 
A)-5-5-5-5-5-5-5-5-7-7-7-7-7-7-7-7--8--8--8--8--8--8--8--8- 
E)-3-3-3-3-3-3-3-3-5-5-5-5-5-5-5-5------------------------- 

E)-----------------------------------------| 
B)-----------------------------------------| 
G)-------------------------7-7-7-7/9-9-9-9-| 
D)-10-10-10-10-10-10-10-10-7-7-7-7/9-9-9-9-| 
A)-10-10-10-10-10-10-10-10-5-5-5-5/7-7-7-7-| 
E)--8--8--8--8--8--8--8--8-----------------|
Repeat 
Pre-Chorus*("There’s no time for.......")
E)------------------------------------------------------------------
B)------------------------------------------------------------------
G)-10-10-10-10-10-10-10-10\9-9-9-9-9-9-9-9/10-10-10-10-10-10-10-10\-
D)-10-10-10-10-10-10-10-10\9-9-9-9-9-9-9-9/10-10-10-10-10-10-10-10\-
A)--8--8--8--8--8--8--8--8\7-7-7-7-7-7-7-7/-8--8--8--8--8--8--8--8\-
E)------------------------------------------------------------------

E)-----------------------|
B)-----------------------|
G)-9-9-10-10-12-12-10-10-|
D)-9-9-10-10-12-12-10-10-|
A)-7-7--8--8-10-10--8--8-|
E)-----------------------|
Chorus** ("And yyooouu......")
E)-------------------------------------------------
B)-------------------------------------------------
G)-------------------------------------------------
D)-7-7-7-7-7-7\3-3-3-3-3-3/5-5-5-5-5-5/7-7-7-7-7-7-
A)-7-7-7-7-7-7\3-3-3-3-3-3/5-5-5-5-5-5/7-7-7-7-7-7-
E)-5-5-5-5-5-5\1-1-1-1-1-1/3-3-3-3-3-3/5-5-5-5-5-5-

E)-------------------------------------------------
B)-------------------------------------------------
G)-------------------------------------5-5-5-5-5-5-
D)-7-7-7-7-7-7\3-3-3-3-3-3/5-5-5-5-5-5-5-5-5-5-5-5-
A)-7-7-7-7-7-7\3-3-3-3-3-3/5-5-5-5-5-5-3-3-3-3-3-3-
E)-5-5-5-5-5-5\1-1-1-1-1-1/3-3-3-3-3-3-------------

E)-------------------------------------------------------------------|
B)-------------------------------------------------------------------|
G)-------------------------------------------------------------------|
D)-7-7-7-7-7-7\3-3-3-3-3-3/5-5-5-5-5-5-5-5-5-5\3-3\2-2-2-2-2-2-2-2-2-|
A)-7-7-7-7-7-7\3-3-3-3-3-3/5-5-5-5-5-5-5-5-5-5\3-3\2-2-2-2-2-2-2-2-2-|
E)-5-5-5-5-5-5\1-1-1-1-1-1/3-3-3-3-3-3-3-3-3-3\1-1\0-0-0-0-0-0-0-0-2-|
*
Back to bass riff and repeat everything for the rest of the song.

*Even up and down strokes
**Triplet down up down stokes
            

comments powered by Disqus
↑ Back to top | Bad Religion Tabs for You. Lyrics for acoustic guitar and electric guitar. Tablatures and chords are parodies/interpretations of the original songs. You may use it for private study, scholarship, research or language learning purposes only