» » »

We Re Only Gonna Die Bass tabs (ver.1)

Artists:  A B C D E F G H I J K L M N O P Q R S T U V W X Y Z # 

We Re Only Gonna Die Bass tabs (ver.1)

Bad Religion
Rating:
0/5 (0 votes)

Hard to play? Try these video lessons and learn fast.
                Bassist: Jay Bentley

/ = Slide Up


INTRO
G-----------------------------------------------------------
D-----------------------------------------------------------
A------------------------3----------------------------------
E--55-3/55--3/55--3/55-3---3--------------------------------


BREAK DOWN
G-----------------------------------------------------------
D-----------------------------------------------------------
A----------5------------------------------------------------
E--5---3------5---------------------------------------------


VERSE
G-----------------------------------------------------------
D-----------------------------------------------------------
A--------------------55555555-------------------------------
E--5555555--3333333------------5555555----------------------

This sounds perfect to me. Just play the intro in between
verses and any where else you hear it
The slow down is simply the verse 
played slow
5 times and speeding up on the sixth time.
Feel free to correct it if you think its wrong
            
Hard to play? Try these video lessons and learn fast. | Correct




comments powered by Disqus
↑ Back to top | Tablatures and chords are parodies/interpretations of the original songs. You may use it for private study, scholarship, research or language learning purposes only