» » »

Them And Us Tabs (ver.3)

Artists:  A B C D E F G H I J K L M N O P Q R S T U V W X Y Z # 

Them And Us Tabs (ver.3)

Bad Religion
Rating:
0/5 (0 votes)

Hard to play? Try these video lessons and learn fast.
                The only thing wrong with this tab is the end of the solo and the last chorus,
Sorry i couldnt figure it out properly.

Intro Part 1
E|--------------------------------------------|
B|--------------------------------------------|
G|--------------------------------10-10-------|
D|-5-5-5-5--8-8-8-8--10-10-10-10--10-10--10-8-|
A|-5-5-5-5--8-8-8-8--10-10-10-10--8--8---10-8-| x5
E|-3-3-3-3--6-6-6-6--8--8--8--8----------8--6-|

Intro Part 2
E|-----------------------------------------------|
B|-----------------------------------------------|
G|-7-7-7-7--10-10-10-10--12-12-12-12-12-12-12-12-|
D|-5-5-5-5--8--8--8--8---10-10-10-10-10-10-10-10-|
A|-----------------------------------------------|
E|-----------------------------------------------|

Verse
E|-----------------------------------------------------------------------|
B|-----------------------------------------------------------------------|
G|-----------------------------------------------------------------------|
D|-5-5-5-5--8-8-8-8--1010101010101010--5-5-5-5--8-8-8-8--3-3-3-3-3-3-3-3-|
A|-5-5-5-5--8-8-8-8--1010101010101010--5-5-5-5--8-8-8-8--3-3-3-3-3-3-3-3-|
E|-3-3-3-3--6-6-6-6--8-8-8-8-8-8-8-8---3-3-3-3--6-6-6-6--1-1-1-1-1-1-1-1-|

E|---------------------------------|
B|---------------------------------|
G|-----------------8-8-8-8-8-8-8-8-|
D|-5-5-5-5-8-8-8-8-8-8-8-8-8-8-8-8-|
A|-5-5-5-5-8-8-8-8-6-6-6-6-6-6-6-6-|
E|-3-3-3-3-6-6-6-6-----------------|

E|--------------------------------------------------------------------|
B|--------------------------------------------------------------------|
G|-10101010-5-5-5-5-10101010-5-5-5-5-10101010-5-5-5-5-----------------|
D|-10101010-5-5-5-5-10101010-5-5-5-5-10101010-5-5-5-5-5-5-5-5-5-5-5-5-|
A|-8-8-8-8--3-3-3-3-8-8-8-8--3-3-3-3-8-8-8-8--3-3-3-3-5-5-5-5-5-5-5-5-|
E|----------------------------------------------------3-3-3-3-3-3-3-3-|

Chorus x2
E|-------------------------------------------------------------------------|
B|-------------------------------------------------------------------------|
G|-7-7-7-7-9-9-9-9-10-10-10-10-10-10-10-10-----------------9-9-9-9-9-9-9-9-|
D|-7-7-7-7-9-9-9-9-10-10-10-10-10-10-10-10-7-7-7-7-7-7-7-7-9-9-9-9-9-9-9-9-|
A|-5-5-5-5-7-7-7-7-8--8--8--8--8--8--8--8--7-7-7-7-7-7-7-7-7-7-7-7-7-7-7-7-|
E|-----------------------------------------5-5-5-5-5-5-5-5-----------------|
  "the---m  an----d   u-----------s"

E|------------------------------------|
B|------------------------------------|
G|------------------9-9-9-9--7-7-7-7--|
D|-7-7-7-7-7-7-7-7--9-9-9-9--7-7-7-7--|
A|-7-7-7-7-7-7-7-7--7-7-7-7--5-5-5-5--|
E|-5-5-5-5-5-5-5-5--------------------|

Back to intro part 1 (play twice, don't play part 2)

Before Interlude
E|-------------------------------------------------------------------------|
B|-------------------------------------------------------------------------|
G|-------------------------------------------------------------------------|
D|-5-5-5-5-8-8-8-8-10-10-10-10-10-10-10-10-5-5-5-5-8-8-8-8-3-3-3-3-3-3-3-3-|
A|-5-5-5-5-8-8-8-8-10-10-10-10-10-10-10-10-5-5-5-5-8-8-8-8-3-3-3-3-3-3-3-3-|
E|-3-3-3-3-6-6-6-6-8--8--8--8--8--8--8--8--3-3-3-3-6-6-6-6-1-1-1-1-1-1-1-1-|

Interlude
E|--------------------------------------------------------|
B|--------------------------------------------------------|
G|--------------------------------------------------------|
D|---------------3-3-3--3-3-3--5-5-5--5-5-5--5-5-5--5-5-5-|
A|-5-5-5--5-5-5--1-1-1--1-1-1--3-3-3--3-3-3--3-3-3--3-3-3-| x4
E|-3-3-3--3-3-3-------------------------------------------|
   . . .  . . .  . . .  . . .  . . .  . . .  . . .  . . .

E|--------------------------------------------------------|
B|--------------------------------------------------------|
G|--------------------------------------------------------|
D|---------------8-8-8--8-8-8--5-5-5--5-5-5--5-5-5--5-5-5-|
A|-5-5-5--5-5-5--6-6-6--6-6-6--3-3-3--3-3-3--3-3-3--3-3-3-| x4
E|-3-3-3--3-3-3-------------------------------------------|
   . . .  . . .  . . .  . . .  . . .  . . .  . . .  . . .

E|-------------------------------------|
B|-------------------------------------|
G|-------------------------------------|
D|-3-3-3-3-3-3-3-3-3-3-3-3-3-3-3-3--3!-|
A|-3-3-3-3-3-3-3-3-3-3-3-3-3-3-3-3--3!-|
E|-1-1-1-1-1-1-1-1-1-1-1-1-1-1-1-1--1!-|
                                   'Go!'
Solo
E|-----------------------------------------------|
B|--------------------12(14)---------------------|
G|--7~-9~-10~~-12(14)--------12(14)--9-10-9-10-9-|
D|-----------------------------------------------|
A|-----------------------------------------------|
E|-----------------------------------------------|

E|-----------------------------------------------------------------|
B|-----------------------------------------------------------------|
G|-----------------------------------------------------------------|
D|-12-12~--12-10-10~--10-8-8~--8-10-7~--7-8-7~--7-8~--8-10-12-10-8-|
A|----------------------------------------------^----------------^-|
E|----------------------------------------------^----------------^-|
                                             not sure about this bit
Chorus (It changes at the end a bit)

Intro part 1 (That changes at the end too)
            
Hard to play? Try these video lessons and learn fast. | Correct




comments powered by Disqus
↑ Back to top | Tablatures and chords are parodies/interpretations of the original songs. You may use it for private study, scholarship, research or language learning purposes only