» » »

Bad Religion, Them And Us Tabs (ver.1)

Artists:  A B C D E F G H I J K L M N O P Q R S T U V W X Y Z # 

Them And Us Tabs (ver.1)

Bad Religion Tabs
 Rating:
4/5 (4 votes)
Them And Us lessons Tabs too difficult? Try these video lessons and learn fast
                Bad Religion- Them and Us
I first heard this song from the Crazy Taxi game and it s pretty ***ing amazing song with a ***ing cool solo

E|------------------------------------------------------
B|------------------------------------------------------
C|------------------------------------------------------\
D|--5-5-5-5-5-5--8-8-8-8--10-10-10-10--10-10--10--8----- |x5
A|--5-5-5-5-5-5--8-8-8-8--10-10-10-10--8--8---10--8-----/
E|--3-3-3-3-3-3--6-6-6-6--8--8--8--8----------8---6-----

E|-----------------------
B|-----------------------
C|-----------------------
D|--5-5-5-5-5-5-5-5--5---
A|-----------------------
E|-----------------------

   Verse
E|------------------------------------------------------------
B|------------------------------------------------------------
C|------------------------------------------------------------
D|--5-5-5---8-8-8--10-10-10-10---5-5-5--8-8-8--3-3-3-3-3-3----
A|--5-5-5---8-8-8--10-10-10-10---5-5-5--8-8-8--3-3-3-3-3-3----
E|--3-3-3---6-6-6--8--8--8--8----3-3-3--6-6-6--1-1-1-1-1-1----

E|------------------------------------------------------------------
B|------------------------------------------------------------------
C|------------------------------10-10-10-10-10-10-10-10-------------
D|--5-5-5--8-8-8--8-8-8-8-8-8---10-10-10-10-10-10-10-10--5-5-5-5-5--
A|--5-5-5--8-8-8--6-6-6-6-6-6---8--8--8--8--8--8--8--8---5-5-5-5-5--
E|--3-3-3--6-6-6-----------------------------------------3-3-3-3-3--

   Chorus
E|--------------------------------------------------------
B|--------------------------------------------------------
C|--------------------------------------------------------\
D|--7-7-7--9-9-9--10-10-10-10--3-3-3-3-3-3--5-5-5-5-5----- |x2
A|--5-5-5--7-7-7--8--8--8--8---3-3-3-3-3-3--3-3-3-3-3-----/
E|-----------------------------1-1-1-1-1-1----------------

E|----------------------------------
B|----------------------------------
C|----------------------------------
D|--8-8-8-8-8--8-8-8-8--10-10-------
A|--6-6-6-6-6--8-8-8-8--10-10-------
E|-------------6-6-6-6--8--8--------

E|------------------------------------------------------
B|------------------------------------------------------
C|------------------------------------------------------\
D|--5-5-5-5-5-5--8-8-8-8--10-10-10-10--10-10--10--8----- |x2
A|--5-5-5-5-5-5--8-8-8-8--10-10-10-10--8--8---10--8-----/
E|--3-3-3-3-3-3--6-6-6-6--8--8--8--8----------8---6-----

 Verse
E|------------------------------------------------------------
B|------------------------------------------------------------
C|------------------------------------------------------------
D|--5-5-5---8-8-8--10-10-10-10---5-5-5--8-8-8--3-3-3-3-3-3----
A|--5-5-5---8-8-8--10-10-10-10---5-5-5--8-8-8--3-3-3-3-3-3----
E|--3-3-3---6-6-6--8--8--8--8----3-3-3--6-6-6--1-1-1-1-1-1----

E|------------------------------------------------------------------
B|------------------------------------------------------------------
C|------------------------------10-10-10-10-10-10-10-10-------------
D|--5-5-5--8-8-8--8-8-8-8-8-8---10-10-10-10-10-10-10-10--5-5-5-5-5--
A|--5-5-5--8-8-8--6-6-6-6-6-6---8--8--8--8--8--8--8--8---5-5-5-5-5--
E|--3-3-3--6-6-6-----------------------------------------3-3-3-3-3--

   Chorus
E|--------------------------------------------------------
B|--------------------------------------------------------
C|--------------------------------------------------------\
D|--7-7-7--9-9-9--10-10-10-10--3-3-3-3-3-3--5-5-5-5-5----- |x2
A|--5-5-5--7-7-7--8--8--8--8---3-3-3-3-3-3--3-3-3-3-3-----/
E|-----------------------------1-1-1-1-1-1----------------

E|----------------------------------
B|----------------------------------
C|----------------------------------
D|--8-8-8-8-8--8-8-8-8--10-10-------
A|--6-6-6-6-6--8-8-8-8--10-10-------
E|-------------6-6-6-6--8--8--------

E|----------------------------    ---------------------
B|----------------------------    ---------------------
C|----------------------------\   ---------------------
D|--5-5-5--8-8-8--5-5-5-5-5--- |x --10-10-10-10-10-10--
A|--5-5-5--6-6-6--3-3-3-3-3---/   --8--8--8--8--8--8---
E|--3-3-3---------------------    ---------------------

  Solo
E|------------------------------------------------------------------
B|-----------------12(14)-------------------------------------------
C|--7-9-10--12(14)--------12(14)-12(14)--9-10-9-10-9----------------
D|---------------------------------------------------12---12-12-12--
A|------------------------------------------------------------------
E|------------------------------------------------------------------

E|--------------------------------------------------
B|--------------------------------------------------
C|--10-10-10--8-8-8-8--7-7-7-8-7---------7-8-7------
D|--------------------------------10-10--------10---
A|--------------------------------------------------
E|--------------------------------------------------

E|--------------------------------------------------------
B|--------------------------------------------------------
C|--------------------------------------------------------\
D|--7-7-7--9-9-9--10-10-10-10--3-3-3-3-3-3--5-5-5-5-5----- |x2
A|--5-5-5--7-7-7--8--8--8--8---3-3-3-3-3-3--3-3-3-3-3-----/
E|-----------------------------1-1-1-1-1-1----------------

E|-----------------------------------------------------
B|-----------------------------------------------------
C|-----------------------------------------------------
D|--8-8-8-8--8-8-8-8--6-6-6--6-6-6--8-8-8--10-10-10----
A|--6-6-6-6--8-8-8-8--4-4-4--6-6-6--8-8-8--10-10-10----
E|-----------6-6-6-6---------4-4-4--6-6-6--8--8--8-----

E|------------------------------------------------------
B|------------------------------------------------------
C|------------------------------------------------------\
D|--5-5-5-5-5-5--8-8-8-8--10-10-10-10--10-10--10--8----- |x3
A|--5-5-5-5-5-5--8-8-8-8--10-10-10-10--8--8---10--8-----/
E|--3-3-3-3-3-3--6-6-6-6--8--8--8--8----------8---6-----

E|-----------------------------------------------||
B|-----------------------------------------------||
C|-----------------------------------------------||
D|--5-5-5-5-5-5--8-8-8-8--10-10-10-10--3-3-3--5--||
A|--5-5-5-5-5-5--8-8-8-8--10-10-10-10--3-3-3--5--||
E|--3-3-3-3-3-3--6-6-6-6--8--8--8--8---1-1-1--3--||
            
Submit corrections

comments powered by Disqus
↑ Back to top | Bad Religion Tabs for Them And Us. Lyrics for acoustic guitar and electric guitar. Tablatures and chords are parodies/interpretations of the original songs. You may use it for private study, scholarship, research or language learning purposes only