» » »

The Lie Bass tabs (ver.2)

Artists:  A B C D E F G H I J K L M N O P Q R S T U V W X Y Z # 

The Lie Bass tabs (ver.2)

Bad Religion
Rating:
0/5 (0 votes)

Hard to play? Try these video lessons and learn fast.
                Tuning: Standard

If your stuck with the timing its almost exactly the same as the conga

Intro
----------------------------------------
-----------------------------2-3--------
----------------------------------2-3--- 1st time x3
---5-5-5-5-5--3--1-1-1-1----------------  2nd time x2  

Intro extension
---------------------------------------
---------------------------------------
--------------------------------------- x1 
---3-3-3-3--3--3--3-3-3-3--3—3--------- (you only do this part on the first intro)

Verse
-------------------------------------------------------
-------------------------------------------------------
--------------3-----------2-------------2-------------- x2
---5-5-5-5-5----3-3-3-3-3----0-0-0-0-0-----5-5-5-5-0-3-              
 
-------------------------------
-------------------------------
---5-5-5--3-3-3--2-2-2--------- x1
-----------------------------0-

Chorus
--------------------------------------------------------
--------------------------------------------------------
----------------3-3-3-3----------------3---------------- x2
---5-5-5-5--3-------------3--1-1-1-1------3-3-3-3--0----

-----------------------------------
-----------------------------------
----------------------------------- x1
---0-0-0-0-0-0-0-0-0-0-0-0-0-0-0-0-
  
Outro
--------------------
--------------------
-------------------- x1
---5-5-5-5-5--3--5--

0rder of song.
Intro
Verse
Chorus
Intro (without the extension)
Verse
Double chorus
Outro

Please rate this tab thanks.
            
Hard to play? Try these video lessons and learn fast. | Correct




comments powered by Disqus
↑ Back to top | Tablatures and chords are parodies/interpretations of the original songs. You may use it for private study, scholarship, research or language learning purposes only