>
 >
The Gray Race

The Gray Race Guitar Tabs

Bad Religion - The Gray Race chords, tabs, tablatures, lyrics

Guitar lessons | Add/correct | Request | Top 50 tabs Artists:  A B C D E F G H I J K L M N O P Q R S T U V W X Y Z 0-9

The Gray Race Guitar Tabs – Bad Religion

CD, Sheet music, Poster

Do you like The Gray Race? Share with your friends now
Tabs
I'm not 100% sure on the solo, any corrections on that are welcome

Intro (x4)
|-----------------------------------------------------------|
|---(let-ring)----------------------------------------------|
|----------------------7--------------7-7-----10-10-----10--|
|--5------------5-5-5--7--7-7-7--8-8--7-7--8--10-10-10--10--|
|--5------------5-5-5--5--7-7-7--8-8--5-5--8--8--8--10--8---|
|--3------------3-3-3-----5-5-5--6-6-------6--------8-------|

Verse 1 (x4)
|----------------------------------------------------|
|----------------------------------------------------|
|--7-7-7-7-7--10-----------------10------------------|
|--7-7-7-7-7--10-10-10-10-10-10--10------------------|
|--5-5-5-5-5--8--10-10-10-10-10--8-------------------|
|----------------8--8--8--8--8-----------------------|
The framework of the world, is black and white
The infrastructure builders, flex their might
Turning true emotion into digital expression
One by one we all fall down

Chorus (x4)
|----------------------------------------------------|
|----------------------------------------------------|
|-----------------------------5-5-5-5----------------|
|--5-5-5-5--7-7-7-7--8-8-8-8--5-5-5-5----------------|
|--5-5-5-5--7-7-7-7--8-8-8-8--3-3-3-3----------------|
|--3-3-3-3--5-5-5-5--6-6-6-6-------------------------|
The gray race shrivels, trapped inside
the world it creates, it's black and white
The gray race shrivels, trapped inside
the world it creates, it's black and white

Verse 2(x4)
|----------------------------------------------------|
|----------------------------------------------------|
|--7-7-7-7-7--10-----------------10------------------|
|--7-7-7-7-7--10-10-10-10-10-10--10------------------|
|--5-5-5-5-5--8--10-10-10-10-10--8-------------------|
|----------------8--8--8--8--8-----------------------|
The perpetual destructive motion machine
Began to chart a course never before seen
Turning raw compassion into fields of plus and minus
One by one we all give in

Solo
|-10-10-10-10-10--13---------------------------------|
|-10-10-10-10-10--13---13-13-13-13-13-13-------------|
|----------------------13-13-13-13-13-13-------------|
|----------------------------------------------------|
|----------------------------------------------------|
|----------------------------------------------------|

|-10-10-10-10-10--13---------------------------------|
|-10-10-10-10-10-----13(b)-13-13(b)-15-14-10(b)------|
|----------------------------------------------------|
|----------------------------------------------------|
|----------------------------------------------------|
|----------------------------------------------------|


Chorus (x4)
|----------------------------------------------------|
|----------------------------------------------------|
|-----------------------------5-5-5-5----------------|
|--5-5-5-5--7-7-7-7--8-8-8-8--5-5-5-5----------------|
|--5-5-5-5--7-7-7-7--8-8-8-8--3-3-3-3----------------|
|--3-3-3-3--5-5-5-5--6-6-6-6-------------------------|
The gray race shrivels, trapped inside
the world it creates, it's black and white
The gray race shrivels, trapped inside
the world it creates, it's black and white

Verse 3 (slower)
|----------------------------------------------------|
|----------------------------------------------------|
|--7-7-7-7-7--10-----------------10------------------|
|--7-7-7-7-7--10-10-10-10-10-10--10------------------|
|--5-5-5-5-5--8--10-10-10-10-10--8-------------------|
|----------------8--8--8--8--8-----------------------|
I'd swear there were times, when I was someone else
A person with determination and knowledge of the self
But you flattened me to rubble and now I can see 
That I'm just a faded negative of the image I used to be

(faster)
And that’s our dilemma!

End
|-----------------------------------------------------|
|-----------------------------------------------------|
|---------7--------------7-7-----10-10-----10---------|
|--5-5-5--7--7-7-7--8-8--7-7--8--10-10-10--10----5----|
|--5-5-5--5--7-7-7--8-8--5-5--8--8--8--10--8-----5----|
|--3-3-3-----5-5-5--6-6-------6--------8---------3----|





Comments


Popular Bad Religion tabs & chords
Germs Of Perfection Bass Tabs
New Leaf Bass Tabs
Scrutiny Bass Tabs
You Are You Are The Government Bass Tabs
Its A Long Way To The Promised Land Chords
Million Days Chords
10 In 2010 Tabs
Atomic Garden Tabs
Empire Strikes First 1 Tabs
Resist Stance Intro 1 Tabs


Song lyrics



↑ Back to top | Tablatures and chords are parodies/interpretations of the original songs. You may use it for private study, scholarship, research or language learning purposes only
© 2014 AZChords.com Contact us | Privacy policy | DMCA | Add/correct tabs | Request tabs | Top 50 tabs