» » »

Supersonic Bass tabs (ver.1)

Artists:  A B C D E F G H I J K L M N O P Q R S T U V W X Y Z # 

Supersonic Bass tabs (ver.1)

Bad Religion
Rating:
0/5 (0 votes)

Hard to play? Try these video lessons and learn fast.
                (2)
SUPERSONIC by BAD RELIGION. Album : The Process Of Belief (2002)
Adrenaline pumped outrageously brilliant song from the outrageously
brilliant Process Of Belief album!
:
#Verse# X6
G----------------|
D----------------|
A---------33-22--|
E-00-3-00--------|
:
#Chorus#
G--------X4-------|---------------------|
D-----------------|---------------------|
A--3>--5>---------|--777--10-10---------|
E---------3>--2>--|--------------88-77--|  
:
Play verse x3.
:
#Verse Variation# (00:39) (How's it feel to be upset by the pace of cultural change)
G---------------------|
D---------------------|
A---------33-2222222--|
E-00-3-00-------------|
:
Play verse x2, play chorus.
:
#Bridge# (00:58)                              (1:11)
G---------------------------------------------|--------------------------|
D-------5----------------45-7-54--------------|--------------------------|
A---2-5----------7----5>-------------2>-------|-------7--5>-3>--5>--6>---|
E-3---------0>-7------------------3>----0-32--|--0>-7--------------------|
:
Play verse x2, play chorus,
:
#End#
G-----|
D-----|
A--7--|
E-----|
:
Play it then..............PLAY IT AGAIN!!
:
            
Hard to play? Try these video lessons and learn fast. | Correct




comments powered by Disqus
↑ Back to top | Tablatures and chords are parodies/interpretations of the original songs. You may use it for private study, scholarship, research or language learning purposes only