» » »

Supersonic Tabs (ver.1)

Artists:  A B C D E F G H I J K L M N O P Q R S T U V W X Y Z # 

Supersonic Tabs (ver.1)

Bad Religion
Rating:
0/5 (0 votes)

Hard to play? Try these video lessons and learn fast.
                tuning:standard
intro 2x both guitars
e|---------------------------------------------------------------------------|
B|---------------------------------------------------------------------------|
G|---------------------------------------------------------------------------|
D|222-4-6-5-7-6-8-108-6------------------------------------------------------|
A|222-2-4-3-5-4-6-8-6-4------------------------------------------------------|
E|---------------------------------------------------------------------------|
verse guitar 1 4x   verse guitar 2 is the intro 4x
e|---------------------------------------------------------------------------|
B|---------------------------------------------------------------------------|
G|5-7-5----------------------------------------------------------------------|
D|5-7-5----------------------------------------------------------------------|
A|3-5-3----------------------------------------------------------------------|
E|---------------------------------------------------------------------------|
chorus 4x both guitars (hit each chord 3x)
e|---------------------------------------------------------------------------|
B|---------------------------------------------------------------------------|
G|5-7------------------------------------------------------------------------|
D|5-7-9-7--------------------------------------------------------------------|
A|3-5-9-7--------------------------------------------------------------------|
E|----7-5--------------------------------------------------------------------|
(intro)
(verse)
(chorus)
interlude guitar 1 2x (guitar 2 just plays an Cpowerchord)
e|---------------------------------------------------------------------------|
B|---------------------------------------------------------------------------|
G|---------------------------------------------------------------------------|
D|77777777-55555555-33333333-55555555----------------------------------------|
A|77777777-55555555-33333333-55555555----------------------------------------|
E|55555555-33333333-11111111-33333333----------------------------------------|
(intro)
(chorus)
(intro)
            
Hard to play? Try these video lessons and learn fast. | Correct




comments powered by Disqus
↑ Back to top | Tablatures and chords are parodies/interpretations of the original songs. You may use it for private study, scholarship, research or language learning purposes only