» » »

Bad Religion, Spirit Shine Tabs (ver.1)

Artists:  A B C D E F G H I J K L M N O P Q R S T U V W X Y Z # 

Spirit Shine Tabs (ver.1)

Bad Religion Tabs
 Rating:
4/5 (4 votes)
Spirit Shine lessons Tabs too difficult? Try these video lessons and learn fast
                Standard Tuning


    Intro/Riff 1
E  :--------------------------------------------------------------------------------|
B  :--------------------------------------------------------------------------------|
G  :--------------------------------------------------------------------------------|
D  :--------------------------------------------------------------------------------|
A  :-8-8-8-8-8-8-8-8-5-5-5-5-5-5-5-5------------------------------------------------|
E  :--------------------------------------------------------------------------------|

    Riff 2 
E  :--------------------------------------------------------------------------------|
B  :--------------------------------------------------------------------------------|
G  :-----------------------------------5--------------------------------------------|
D  :-----------------------------------5--5-----------------------------------------|
A  :-8-8-8-8-8-8-8-8-5-5-5-5-5-5-5-5---3--5-----------------------------------------|
E  :--------------------------------------3-----------------------------------------|


    Chorus/Riff 3 
E  :--------------------------------------------------------------------------------|
B  :--------------------------------------------------------------------------------|
G  :-10---------10--5----------5----------------7-----5-----------------------------|
D  :-10---------10--5----------5--5----------5--7-----5--5--------------------------|
A  :--8----------8--3----------3--5----------5--5-----3--5--------------------------|
E  :------------------------------3----------3-----------3--------------------------|

    Chorus/Riff 4 
E  :--------------------------------------------------------------------------------|
B  :--------------------------------------------------------------------------------|
G  :-10---------10--5---------------------------------------------------------------|
D  :-10---------10--5-----5-5-5-5-5-5-5-5-5-5-5-5-5---------------------------------|
A  :--8----------8--3-----5-5-5-5-5-5-5-5-5-5-5-5-5---------------------------------|
E  :----------------------3-3-3-3-3-3-3-3-3-3-3-3-3---------------------------------|
                         \..........PM............/
    Riff 5
E  :--------------------------------------------------------------------------------|
B  :--------------------------------------------------------------------------------|
G  :--------------------------------------------------------------------------------|
D  :--------------------------------------------------------------------------------|
A  :-5-----7---5----8-----7---------5-----7---5----8-----7--------------------------|
E  :--------------------------------------------------------------------------------|

    Riff 6
E  :--------------------------------------------------------------------------------|
B  :--------------------------------------------------------------------------------|
G  :-7--10--7------5----------------------------------------------------------------|
D  :-7--10--7---7--5----------------------------------------------------------------|
A  :-5---8--5---7--3----------------------------------------------------------------|
E  :------------5-------------------------------------------------------------------|

    Chorus/Riff 7
E  :--------------------------------------------------------------------------------|
B  :--------------------------------------------------------------------------------|
G  :-10---------10--5----------5----------------7-----------------------------------|
D  :-10---------10--5----------5--5----------5--7-----------------------------------|
A  :--8----------8--3----------3--5----------5--5-----------------------------------|
E  :------------------------------3----------3--------------------------------------|

    Outro/Riff 8
E  :--------------------------------------------------------------------------------|
B  :--------------------------------------------------------------------------------|
G  :-12-12-12-12-12-12-12-12-12-12-12-12-12-12-----7--------------------------------|
D  :-12-12-12-12-12-12-12-12-12-12-12-12-12-12-----7--------------------------------|
A  :-10-10-10-10-10-10-10-10-10-10-10-10-10-10-----5--------------------------------|
E  :--------------------------------------------------------------------------------|

Song structure:

Intro/Riff 1 (3 times) 
Riff 2
Intro Riff 1 (3 times)
Riff 2

Chorus/Riff 3
Chorus/Riff 4

Riff 5
Riff 6 (12 times)

Riff 1
Riff 2
Riff 1
Riff 2
Riff 1 (3 times)
Riff 2

Chorus/Riff 3
Chorus/Riff 4
Chorus/Riff 7
Chorus/Riff 4

Outro/Riff 8
            
Submit corrections

comments powered by Disqus
↑ Back to top | Bad Religion Tabs for Spirit Shine. Lyrics for acoustic guitar and electric guitar. Tablatures and chords are parodies/interpretations of the original songs. You may use it for private study, scholarship, research or language learning purposes only