» » »

Bad Religion, Skyscraper Tabs (ver.1)

Artists:  A B C D E F G H I J K L M N O P Q R S T U V W X Y Z # 

Skyscraper Tabs (ver.1)

Bad Religion Tabs
Rating:
0/5 (0 votes)
Skyscraper lessons Tabs too difficult? Try these video lessons and learn fast
                Bad Religion - Skyscr*per


Tuning: Standard (E A D G B E)

Follow the song for the rythmn

Verse
E|-------------------------------------------------------------------||
B|-------------------------------------------------------------------||
G|-------------4--5--6-------9-------9-------6-----------4---2-------||
D|-6---7---2---4--5--6---7---9---9---9---9---6---7---2---4---2-------||
A|-6---7---2---2--3--4---7---7---9---7---9---4---7---2---2---0-------||
E|-4---5---0-------------5-------7-------7-------5---0---------------||

Chorus
E|-------------------------------------------------------------------||
B|-------------------------------------------------------------------||
G|-6---4---2-4-9---9-8--6---4---------------4---2--------------------||
D|-6---4---2-4-9---9-8--6---4---6---7---2---4---2--------------------||
A|-4---2---0-2-7---7-6--4---2---6---7---2---2---0--------------------||
E|------------------------------4---5---0----------------------------||

Verse 2
E|-------------------------------------------------------------------||
B|-------------------------------------------------------------------||
G|-------------4--5--6-------9-------9-------6-----------4---2-------||
D|-6---7---2---4--5--6---7---9---9---9---9---6---7---2---4---2-------||
A|-6---7---2---2--3--4---7---7---9---7---9---4---7---2---2---0-------||
E|-4---5---0-------------5-------7-------7-------5---0---------------||

Chorus 2
E|-------------------------------------------------------------------||
B|-------------------------------------------------------------------||
G|-6---4---2-4-9---9-8--6---4---------------4---2-------9------------||
D|-6---4---2-4-9---9-8--6---4---6---7---2---4---2-------9------------||
A|-4---2---0-2-7---7-6--4---2---6---7---2---2---0----/6-7------------||
E|------------------------------4---5---0----------------------------||

Solo (A weird one from Brett, I bet I know what he was on when he
wrote this)
E|--------------12---------------------------------------------------||
B|-12-----12---------12----------------------------------------9-----||
G|-11b13--11b13---------11b13b11-------------------------------9-----||
D|--------------------------------------------------------/11--9-----||
A|-------------------------------------------------------------------||
E|-------------------------------finger slide up strings-------------||

E|-------9----------------------------------------(12)-----(12)-(12)-||
B|---------12p9------------------------------------------------------||
G|-11b13--------11b13b11b13b11b13b11b13b11b13b11---------------------||
D|-------------------------------------------------------------------||
A|-------------------------------------------------------------------||
E|-------------------------------------------------------------------||

E|-(12)(9)----------(12)---------------------------------------------||
B|-------------------------------------------------------------------||
G|-------------------------------------------------------------------||
D|---------(7)(7)----------------------------------------------------||
A|-----------------------0-------------------------------------------||
E|-------------------------------------------------------------------||

Bridge
E|-------------------------------------------------------------------||
B|-------------------------------------------------------------------||
G|-9-------------6------------------4---2----------------------------||
D|-9------9------6------7-------2---4---2----------------------------||
A|-7------9------4------7-------2---2---0----------------------------||
E|--------7-------------5-------0------------------------------------||

Chorus 3
E|-------------------------------------------------------------------||
B|-------------------------------------------------------------------||
G|-6---4---2-4-9---9-8--6---4---------------4---2--------------------||
D|-6---4---2-4-9---9-8--6---4---6---7---2---4---2--------------------||
A|-4---2---0-2-7---7-6--4---2---6---7---2---2---0--------------------||
E|------------------------------4---5---0----------------------------||

Outro
E|-------------------------------(16)b14-14--14b16--14b16(trill)-----||
B|------------------------12-----------------------------------------||
G|-4-4---4---2--4-9---8---11b13--------------------------------(fade)||
D|-4-4---4---2--4-9---8------------------------------------------out-||
A|-2-6---2---0--2-7---6----------------------------------------------||
E|-------------------------------------------------------------------||
            

comments powered by Disqus
↑ Back to top | Bad Religion Tabs for Skyscraper. Lyrics for acoustic guitar and electric guitar. Tablatures and chords are parodies/interpretations of the original songs. You may use it for private study, scholarship, research or language learning purposes only