» » »

Bad Religion, Recipie For Hate Tabs (ver.1)

Artists:  A B C D E F G H I J K L M N O P Q R S T U V W X Y Z # 

Recipie For Hate Tabs (ver.1)

Bad Religion Tabs
 Rating:
4/5 (4 votes)
Recipie For Hate lessons Tabs too difficult? Try these video lessons and learn fast
1
                Recipie for hate


Intro:
Riff 1:
D5 E5 D5 E5 D5 E#5 E5 G5 A5
e|-----------------------------------------------------------------------
B|-----------------------------------------------------------------------
G|-7-7---9--9-9--7--9---7---10--9--9-9--9-/-12-12-12-12-12---------------
D|-7-7---9--9-9--7--9---7---10--9--9-9--9-/-12-12-12-12-12-\-7-7-7-7-7---
A|-5-5---7--7-7--5--7---5----8--7--7-7--7-/-10-10-10-10-10-\-7-7-7-7-7---
E|------(0)--(0)---------------(0)--(0)--------------------\-5-5-5-5-5---

Intro:
Riff 2:

D5 E5 D5 E5 D5 E5 C5 G5
e|-----------------------------------------------------------------------
B|-----------------------------------------------------------------------
G|-7-/-9-9-9-\--7-/-9-9--9-9-\--7-/-9-9-9-\-5-5--------------------------
D|-7-/-9-9-9-\--7-/-9-9--9-9-\--7-/-9-9-9-\-5-5-\-5---5-5----------------
A|-5-/-7-7-7-\--5-/-7-7--7-7-\--5-/-7-7-7-\-3-3-\-5---5-5----------------
E|---------------------------------------------------------\-3---3-3-----


eI----------------------------------------------------------------------
BI----------------------------------------------------------------------
GI-7-/-9-9-9-\--7-/-9-9--9-9-\--7-/-9-9-9-\-5-5-\--7--7-7---------------
DI-7-/-9-9-9-\--7-/-9-9--9-9-\--7-/-9-9-9-\-5-5-\--7--7-7---------------
AI-5-/-7-7-7-\--5-/-7-7--7-7-\--5-/-7-7-7-\-3-3-\--5--5-5---------------
EI----------------------------------------------------------------------


e|---------------------------------------------------------------------------------|
B|---------------------------------------------------------------------------------|
G|-7-/-9--9-9--9-\-7---9-9-/-12-\-10-\-9---7-7-/-9--9-9--9-\-7---9-9-\-------------|
D|-7-/-9--9-9--9-\-7---9-9-/-12-\-10-\-9---7-7-/-9--9-9--9-\-7---9-9-\-7-7-7-7-5-7-|
A|-5-/-7--7-7--7-\-5---7-7-/-10-\--8-\-7---5-5-/-7--7-7--7-\-5---7-7-\-7-7-7-7-5-7-|
E|---------------------------------------------------------------------5-5-5-5-3-7-|




e|--------------------------------------------------------------------|
B|-15b----15-14-15-14-12-14-12----------------------------------------|
G|-----12----------------------14-12-14-14b~--------------------------|
D|--------------------------------------------------------------------|
A|--------------------------------------------------------------------|
E|--------------------------------------------------------------------|
            
Submit corrections

comments powered by Disqus
↑ Back to top | Bad Religion Tabs for Recipie For Hate. Lyrics for acoustic guitar and electric guitar. 1 Tablatures and chords are parodies/interpretations of the original songs. You may use it for private study, scholarship, research or language learning purposes only