» » »

Bad Religion, Part Bass tabs (ver.2)

Artists:  A B C D E F G H I J K L M N O P Q R S T U V W X Y Z # 

Part Bass tabs (ver.2)

Bad Religion Tabs
 Rating:
4/5 (4 votes)
Part lessons Tabs too difficult? Try these video lessons and learn fast
1
                PART III by BAD RELIGION  Album : 80 - 85 (1991) (prev. released)
This kicks ass and is only surpassed by the live version on Tested. 
I think it's the only song Jay has wrote that's on an album. 
(Somebody prove me wrong please)
:
#Intro# 2X
G----------------------------|
D----------------------------|
A----0>--22-3>----0>---------|
E--------------3>------------|
:
#Verse# 3X
G------------------------|
D-------------3----------|
A--0>--33-33--------0>---|
E---------------3>-------|
:
#Verse Variation#
G--------------------------|
D-------------3---5>---2>--|
A--0>--33-33---------------|
E--------------------------|
:
Then play verse x2, then play variant x1, then play verse x4, then play variant x1, 
than play verse x2, then play variant x1, then play verse x3.
:
#End# *=let ring
G------------------------|
D------------5>---2-2*---|
A--0>--3>----------------|
E------------------------|
:
Great song just learn the order and that's it.
            
Submit corrections

comments powered by Disqus
↑ Back to top | Bad Religion Bass for Part. Lyrics for acoustic guitar and electric guitar. 1 Tablatures and chords are parodies/interpretations of the original songs. You may use it for private study, scholarship, research or language learning purposes only