» » »

Out Of Hands Bass tabs (ver.1)

Artists:  A B C D E F G H I J K L M N O P Q R S T U V W X Y Z # 

Out Of Hands Bass tabs (ver.1)

Bad Religion
Rating:
0/5 (0 votes)

Hard to play? Try these video lessons and learn fast.
                With lyrical reference:

   Take your *** anymore
G|--------------------------------------------------------------------
D|-2-2-2-2-2-2-2-2----------------------------------------------------
A|-----------------3-3-3-3-3-3-3-3-5-5-5-5-5-5-5-5--------------------
E|-------------------------------------------------3-3-3-3-2-2-2-2----

   Life is way too short
G|--------------------------------------------------------------------
D|-------------------------------------------------5-5-5-7-4-4--------
A|-----------------3-3-3-3-3-3-3-3-5-5-5-5-5-5-5-5-------------5-5----
E|-0-0-0-0-0-0-0-0----------------------------------------------------

   The turning of the hourglass    It beckons me like gravity
G|--------------------------------------------------------------------
D|--------------------------------------------------------------------
A|-------------------------5-5-5-5-------------------------5-5-5-5----
E|-0-0-0-0-0-0-0-0-3-3-3-3---------0-0-0-0-0-0-0-0-3-3-3-3------------

  And you got what you wanted without force or repromand
G|--------------------------------------------------------------------
D|--------------------------------------------------------------------
A|-------------------------5-5-5-5-3-3-3-3-3-3-3-3-5-5-5-5-5-5-5-5----
E|-0-0-0-0-0-0-0-0-3-3-3-3--------------------------------------------

   The seconds are all running out, this burden's out of haaand
G|--------------------------------------------------------------------
D|--------------------------------------------------------------------
A|-3-3-3-3-3-3-3-3-2-2-2-2-2-2-2-2---------3-3-3-3---------5-5-5-5----
E|---------------------------------0-0-0-0---------0-0-0-0------------


G|--------------------------------------------------------------------
D|--------------------------------------------------------------------
A|---------3-3-3-3---------5-5-5-5---------------------------------7--
E|-0-0-0-0---------0-0-0-0---------0-----0-0-----0---0---0-0---0------

Hmm, he uses some syncopation, and that's it.  Bam!
            
Hard to play? Try these video lessons and learn fast. | Correct




comments powered by Disqus
↑ Back to top | Tablatures and chords are parodies/interpretations of the original songs. You may use it for private study, scholarship, research or language learning purposes only