» » »

Bad Religion, Lookin In Tabs (ver.1)

Artists:  A B C D E F G H I J K L M N O P Q R S T U V W X Y Z # 

Lookin In Tabs (ver.1)

Bad Religion Tabs
 Rating:
4/5 (4 votes)
Lookin In lessons Tabs too difficult? Try these video lessons and learn fast
                ------------------------------------------------------------------------- 
                      LOOKIN' IN - Bad Religion
------------------------------------------------------------------------- 


F C D 

main rythm: 
E-------------------------------------------------- 
B-------------------------------------------------- 
G-2--2--2--2--------------2--2--2--2--------------- 
D-2--2--2--2-----------2--2--2--2--2--------------- 
A-0--0--0--0--2--3--5-----0--0--0--0--3--2--0------ 
E----------------------------------------------3--- 

Suddenly it came to me, a potent dosage of reality 
I saw myself in the broad daylight 

C D 
And it made me think about life 

(main rythm) 

I am not the kind of guy who knods his head with closed eyes 
I scoff at labels, defy censuses, and despise group mentality 

F C A 

F G 
All along I thought that this was only human 

(main rythm) 

F G B B A A F 
But I know now that I'm in the minority 

(with main rythm) 
I'm lookin in, lookin in, lookin in, I'm lookin in 

F C D 

(with main rythm) 
Now I think in relation to my fellow man and what he strives to do 
We fail to see there's no comprimise, our evolution is our demise 

F C A (main rythm) 

F G 
One day you may find you're also one of me 

F G 
A complex microcosm of the human race 

(main rythm) 

F G 
Observing those around us, desiring to belong 

F G B B A A F 
Behind the guise of salvation we suffer all along the way 


(with main rythm) 
We're lookin in, lookin in, lookin in, we're lookin in 
lookin in, lookin in, lookin in, we're lookin in 

A 

-------------------------------------------------------------------------
            
Submit corrections

comments powered by Disqus
↑ Back to top | Bad Religion Tabs for Lookin In. Lyrics for acoustic guitar and electric guitar. Tablatures and chords are parodies/interpretations of the original songs. You may use it for private study, scholarship, research or language learning purposes only