» » »

Latch Key Kids Tabs (ver.2)

Artists:  A B C D E F G H I J K L M N O P Q R S T U V W X Y Z # 

Latch Key Kids Tabs (ver.2)

Bad Religion
Rating:
0/5 (0 votes)

Hard to play? Try these video lessons and learn fast.
                
        intro/ flick the treble switch on yo axe.
e|------------------------------------------|
B|------------------------------------------|
G|--4---4---4---4----------4---7--7---------|  x4
D|--4---4---4---4---4---7--4---7--7---------|
A|--2---2---2---2---4---7--2---5--5---------|
E|------------------2---5-------------------|

e|-------------------------------------------------|
B|-------------------------------------------------|
G|---7--7--7--7-------------------4--4--4--4-------| x4
D|---7--7--7--7-----7--7--7--7----4--4--4--4-------|
A|---5--5--5--5-----7--7--7--7----2--2--2--2-------| then back to intro
E|------------------5--5--5--5---------------------|




       I'm sorry the words are too ***in fast to figure out so
       I will not be printing them. As for the solo at the end,
       I would tab it out, but then I'd be robbing you of the 
       splendor of learning it on your own, and I just wouldn't
       feel right about that. I'd also like to tell the lazy ***ers
       out there that if you can't take the time to TAB out a song
       instead of writing the chords, DON'T BOTHER. Quit being
       so ***in lazy. Not all of us are tech geeks that know
        every ***in last chord in the book. Other than that,
          have fun.
            
Hard to play? Try these video lessons and learn fast. | Correct




comments powered by Disqus
↑ Back to top | Tablatures and chords are parodies/interpretations of the original songs. You may use it for private study, scholarship, research or language learning purposes only