» » »

Kyoto Now Tabs (ver.2)

Artists:  A B C D E F G H I J K L M N O P Q R S T U V W X Y Z # 

Kyoto Now Tabs (ver.2)

Bad Religion
Rating:
0/5 (0 votes)

Hard to play? Try these video lessons and learn fast.
                This is my 1st tab, but I know it is 100% correct.

Intro 1 (2x)                                    1/4   Only bend 1st time         
e|---------------------------------------------------------|
B|---3333/6666/10-10-10/11\10--8888\4444\1-1/3/4\3^--------|
G|---2222/5555/-9--9--9/10\-9--7777\3333-0-0-2/3\2^--------|
D|---------------------------------------------------------|
A|---------------------------------------------------------|
E|---------------------------------------------------------|

   D    Play this right after the second repeat of Intro 1
e|-0-|
B|-3-|
G|-2-|
D|-0-|
A|-0-|
E|-x-|

Intro 2 (5x)
   D D D C   C C C D
e|-0-0-0-0-x-0-0-0-0-|
B|-3-3-3-1-x-1-1-1-3-|
G|-2-2-2-0-x-0-0-0-2-|
D|-0-0-0-2-x-2-2-2-0-|
A|-0-0-0-3-x-3-3-3-0-|
E|-x-x-x-x-x-x-x-x-x-|

Verse 1 (4x)
                                     Play after final repeat.
|-----------------------------------|---------------|
|-----------------------------------|---------------|
|-----------6-6-6-6-------6-6--8-8--|-10-6-8-8-8-8-8|
|-3-3--6-6--6-6-6-6--6-6--6-6--8-8--|-10-6-8-8-8-8-8|
|-3-3--6-6--4-4-4-4--6-6--4-4--6-6--|-8--4-6-6-6-6-6|
|-1-1--4-4-----------4-4------------|---------------|

Chorus (4x)
|---------------------------------|------------------------------|
|---------------------------------|------------------------------|
|---------6-6-6-6---------8-8-8-8-|10-10-10/11\10----------------|
|-8-8-8-8-6-6-6-6-6-6-6-6-8-8-8-8-|10-10-10/11\10--10-10-10/11\10|
|-8-8-8-8-4-4-4-4-6-6-6-6-6-6-6-6-|8--8--8-/9-\8---10-10-10/11\10|
|-6-6-6-6---------4-4-4-4---------|-----------------8--8--8/9-\8-|

Now play Intro 2(1x)

Verse 2 (4x)
e|---------------------------------------------------------------|
B|---------------------------------------------------------------|
G|---7-7-7-7--10-10-10-10--5-5-5-5--7-7-7-7----------------------|
D|---7-7-7-7--10-10-10-10--5-5-5-5--7-7-7-7----------------------|
A|---5-5-5-5---8--8--8--8--3-3-3-3--5-5-5-5----------------------|
E|---------------------------------------------------------------|

Now play verse 1 (4x) including the ending thingy.

Play the Chorus (8x)

Play this thing right before the solo.
|-------------------------------|
|-------------------------------|
|-------------------------------|
|-3-3-3--3-3-3-3--3-3--4--5--6--|
|-3-3-3--3-3-3-3--3-3--4--5--6--|
|-1-1-1--1-1-1-1--1-1--2--3--4--|
During the solo, play the chorus.(4x)
Then, during the last measure of the solo play this.
|---------------------------------|
|---------------------------------|
|---------------------------------|
|-10-10-10-10-8-8-6-6-5-5-5-------|
|-8--8--8--8--6-6-4-4-3-3-3-------|
|---------------------------------|

Now play the chorus 8 more times.

Outro-like substance. Let the last chord ring.(~, means let ring in this particular tab.)
|----------------------------------------|
|----------------------------------------|
|-10--6--8-8-8--8-8-8-8--8-8-8-8---------|
|-10--6--8-8-8--8-8-8-8--8-8-8-8--8~~~~~~|
|-8---4--6-6-6--6-6-6-6--6-6-6-6--8~~~~~~|
|---------------------------------6~~~~~~|

Hope this helps you.
            
Hard to play? Try these video lessons and learn fast. | Correct




comments powered by Disqus
↑ Back to top | Tablatures and chords are parodies/interpretations of the original songs. You may use it for private study, scholarship, research or language learning purposes only