>
 >
Kyoto Now!

Kyoto Now! Guitar Tabs

Bad Religion - Kyoto Now! chords, tabs, tablatures, lyrics

Guitar lessons | Add/correct | Request | Top 50 tabs Artists:  A B C D E F G H I J K L M N O P Q R S T U V W X Y Z 0-9

Kyoto Now! Guitar Tabs – Bad Religion

CD, Sheet music, Poster

Do you like Kyoto Now!? Share with your friends now
TabsTabs v2Tabs v3
I couldnt understand the first tab of this song
so I tabbed hopefully a better one Enjoy!!

Update 10/14/02  Tabbed out the guitar solo

Intro (play twice)
|------------------------------------------------------------|
|-3-3-3-3-6-6-6-6-10-10-10-11-10--8-8-8-8-4-4-4-4-1-1-3-4-3--|
|-2-2-2-2-5-5-5-5-9--9--9--10-9---7-7-7-7-3-3-3-3-0-0-2-3-2--|
|------------------------------------------------------------|
|------------------------------------------------------------|
|------------------------------------------------------------|

Verse 1 (beginning)
|-2-2-2--0-0-0-0--2----------|
|-3-3-3--1-1-1-1--3----------|
|-2-2-2--0-0-0-0--2----------|
|-0-0-0--2-2-2-2--0----------|
|--------3-3-3-3-------------|
|----------------------------|

(play this part 4 times)   
|---------------------------------------------------|
|---------------------------------------------------|
|-----------6-6-6-6-------6-6--8-8------------------|
|-3-3--6-6--6-6-6-6--6-6--6-6--8-8------------------|
|-3-3--6-6--4-4-4-4--6-6--4-4--6-6------------------|
|-1-1--4-4-----------4-4----------------------------|

Chorus
play 4 times                      then play this part once
|-------------------------------------------------------------|
|-------------------------------------------------------------|
|---------6-6-6-6---------8-8-8-8--10-10-10-11-10-------------|
|-8-8-8-8-6-6-6-6-6-6-6-6-8-8-8-8--10-10-10-11-10-------------|
|-8-8-8-8-4-4-4-4-6-6-6-6-6-6-6-6--8--8--8--9--8--------------|
|-6-6-6-6---------4-4-4-4-------------------------------------|

Second Verse
(play intro once) then..
play 4 times
|----------------------------|
|----------------------------|
|-7-7-7-7—-1010-1010-7-7-7-7-|
|-7-7-7-7--1010-1010-7-7-7-7-|
|-5-5-5-5--8-8--8-8—-5-5-5-5-|
|----------------------------|

play 4 times                     1x
|---------------------------------||------------------|
|---------------------------------||------------------|
|---------6-6-6-6-----6-6-8-8-8-8-||-10--6--8-8-8-8-8-|
|-3-3-6-6-6-6-6-6-6-6-6-6-8-8-8-8-||-10--6--8-8-8-8-8-|
|-3-3-6-6-4-4-4-4-6-6-4-4-6-6-6-6-||-8---4--6-6-6-6-6-|
|-1-1-4-4---------4-4-------------||------------------|

play once
|------------------|
|------------------|
|-10-6-6--8-8-8-8-8|
|-10-6-6--8-8-8-8-8|
|-8--4-4--6-6-6-6-6|
|------------------|
Chorus (play 8 times)
|---------------------------------|
|---------------------------------|
|---------6-6-6-6---------8-8-8-8-|
|-8-8-8-8-6-6-6-6-6-6-6-6-8-8-8-8-|
|-8-8-8-8-4-4-4-4-6-6-6-6-6-6-6-6-|
|-6-6-6-6---------4-4-4-4---------|

Guitar Solo
e|---------------------------------------------------------------------------|
B|-----------------------------14----------------------14------17p14p13\-----|
G|--13h15-15--13h15-15--13h15------15p13h15--15p13h15------15----------------|
D|---------------------------------------------------------------------------|
A|---------------------------------------------------------------------------|
E|---------------------------------------------------------------------------|

e|---------------------------------------------------------------------------|
B|---------------------------------------------------------------------------|
G|--13h15-15h--13h15p13--15p13-----------------------------------------------|
D|------------------------------15p13p11----------------11h13p11--10--11--13-|
A|----------------------------------------13-13-13--13-----------------------|
E|---------------------------------------------------------------------------|

e|---------------------------------------------------------------------------|
B|-------------13h14h16p14p11------------------------------------------------|
G|--10--13h15------------------13p11~--16p14p11-(x5)---4h--------------------|
D|---------------------------------------------------------------------------|
A|---------------------------------------------------------------------------|
E|---------------------------------------------------------------------------|


Then play this once (before solo)
|-------------------------------|
|-------------------------------|
|-------------------------------|
|-3-3-3--3-3-3-3--3-3--4--5--6--|
|-3-3-3--3-3-3-3--3-3--4--5--6--|
|-1-1-1--1-1-1-1--1-1--2--3--4--|

Play 4 times
|---------------------------------|
|---------------------------------|
|---------6-6-6-6---------8-8-8-8-|
|-8-8-8-8-6-6-6-6-6-6-6-6-8-8-8-8-|
|-8-8-8-8-4-4-4-4-6-6-6-6-6-6-6-6-|
|-6-6-6-6---------4-4-4-4---------|

then this once
|---------------------------------|
|---------------------------------|
|---------------------------------|
|-10-10-10-10-8-8-6-6-5-5-5-------|
|-8--8--8--8--6-6-4-4-3-3-3-------|
|---------------------------------|


play 8 times
|---------------------------------|
|---------------------------------|
|---------6-6-6-6---------8-8-8-8-|
|-8-8-8-8-6-6-6-6-6-6-6-6-8-8-8-8-|
|-8-8-8-8-4-4-4-4-6-6-6-6-6-6-6-6-|
|-6-6-6-6---------4-4-4-4---------|

End, play once (ohhh kyoto now!!)
|-----------------------------------|
|-----------------------------------|
|-10--6--8-8-8--8-8-8-8--8-8-8-8----|
|-10--6--8-8-8--8-8-8-8--8-8-8-8--8-|
|-8---4--6-6-6--6-6-6-6--6-6-6-6--8-|
|---------------------------------6-|





Comments


Popular Bad Religion tabs & chords
I Love My Computer 1 Bass Tabs
New Dark Ages Chords
American Jesus 2 Tabs
Inner Logic Tabs
Requiem For Dissent 1 Tabs
Sorrow 2 Tabs
Them And Us 1 Tabs
Part Lll Ukulele
Punk Rock Song Ukulele
Quality Or Quantity Ukulele


Song lyrics



↑ Back to top | Tablatures and chords are parodies/interpretations of the original songs. You may use it for private study, scholarship, research or language learning purposes only
© 2014 AZChords.com Contact us | Privacy policy | DMCA | Add/correct tabs | Request tabs | Top 50 tabs