» » »

Bad Religion, It's A Long Way To The Promise Land Tabs (ver.1)

Artists:  A B C D E F G H I J K L M N O P Q R S T U V W X Y Z # 

It's A Long Way To The Promise Land Tabs (ver.1)

Bad Religion Tabs
Rating:
0/5 (0 votes)
It's A Long Way To The Promise Land lessons Tabs too difficult? Try these video lessons and learn fast
                Notes: Im almost positive this is correct, just make sure about the # of strums
Intro (x2) (clean electric)
|------------------------------------|
|------------------------------------|
|----9-9-9-9--8-8-8-8----------------|
|----9-9-9-9--8-8-8-8----------------|
|----7-7-7-7--6-6-6-6----------------|
|------------------------------------|


Verses (x2 w/no dist) (2nd and 3rd verse keep dist)
|----------------------------------------------------|
|----------------------------------------------------|
|----9-9-9-9--8-8-8-8--9-9-9-9--8-8-8-8--------------|
|----9-9-9-9--8-8-8-8--9-9-9-9--8-8-8-8--------------|
|----7-7-7-7--6-6-6-6--7-7-7-7--6-6-6-6--------------|
|----------------------------------------------------|
7
Then……(w/Distortion)
|----------------------------------------------------|
|----------------------------------------------------|
|----------------------------------------------------|
|--7-7-7-7---9-9-9-9--7-7-7-7---9-9-9-9--7-7-7-7-----|
|--7-7-7-7---9-9-9-9--7-7-7-7---9-9-9-9--7-7-7-7-----|
|--5-5-5-5---7-7-7-7--5-5-5-5---7-7-7-7--5-5-5-5-----|

|----------------------------------------------------|
|----------------------------------------------------|
|--9-----------9-------------------------------------|
|--9--9-9-9-9--9--9-9-9-9---7-7-7-7--9-9-9-9--7-7----|
|--7--9-9-9-9--7--9-9-9-9---7-7-7-7--9-9-9-9--7-7----|
|-----7-7-7-7-----7-7-7-7---5-5-5-5--7-7-7-7--5-5----|

|------------|
|------------|
|-9-9--------|
|-9-9--9-9---|
|-7-7--9-9---|
|------7-7---|

Bridge W/dist (continue for entire Bridge)
Easy answers are bought without experience……
|----------------------------------------------------|
|----------------------------------------------------|
|--7-7-7-7--9-9-9-9----------------------------------|
|--7-7-7-7--9-9-9-9--9-9-9-9-------------------------|
|--5-5-5-5--7-7-7-7--9-9-9-9-------------------------|
|--------------------7-7-7-7-------------------------|
            
Submit corrections

comments powered by Disqus
↑ Back to top | Bad Religion Tabs for It's A Long Way To The Promise Land. Lyrics for acoustic guitar and electric guitar. Tablatures and chords are parodies/interpretations of the original songs. You may use it for private study, scholarship, research or language learning purposes only