» » »

Bad Religion, In The Night Tabs (ver.1)

Artists:  A B C D E F G H I J K L M N O P Q R S T U V W X Y Z # 

In The Night Tabs (ver.1)

Bad Religion Tabs
 Rating:
4/5 (4 votes)
In The Night lessons Tabs too difficult? Try these video lessons and learn fast
1
                Riff 1  (main Riff)
e|---------------------------------------------------------------------------|
B|---------------------------------------------------------------------------|
G|---5--5-5--5---------------------------------------------------------------| x4
D|---5--5-5--5----5--5-3--3--6--6--------------------------------------------|
A|---3--3-3--3----5--5-3--3--6--6--------------------------------------------|
E|----------------3--3-1--1--4--4--------------------------------------------|

Riff 2

e|------------------------------------------|
B|------------------------------------------|
G|----5--------3----------------------------|
D|----5--------3---------6-------5----------| x1
A|----3--------1---------6-------5----------|
E|-----------------------4-------3----------|

Riff 3

e|---------------------------------------------------------|
B|---------------------------------------------------------|
G|-----5--5--5--5---------------5--5--5--5-----------------| 
D|-----5--5--5--5---6--6--6--6--5--5--5--5---6--6--6--6----|  x12
A|-----3--3--3--3---6--6--6--6--3--3--3--3---6--6--6--6----|
E|------------------4--4--4--4---------------4--4--4--4----|

Riff 4

e|---------------------------------------------------------------------------|
B|---------------------------------------------------------------------------|
G|---5--5-5--5---------------------------------------------------------------| 
D|---5--5-5--5----6--6--3--3--5--5-------------------------------------------|  x7
A|---3--3-3--3----6--6--3--3--5--5-------------------------------------------|
E|----------------4--4--1--1--3--3-------------------------------------------|

Riff 5
C     G# F C G#  x1
            
Submit corrections

comments powered by Disqus
↑ Back to top | Bad Religion Tabs for In The Night. Lyrics for acoustic guitar and electric guitar. 1 Tablatures and chords are parodies/interpretations of the original songs. You may use it for private study, scholarship, research or language learning purposes only