>
 >
Infected 3

Infected 3 Guitar Tabs

Bad Religion - Infected 3 chords, tabs, tablatures, lyrics

Guitar lessons | Add/correct | Request | Top 50 tabs Artists:  A B C D E F G H I J K L M N O P Q R S T U V W X Y Z 0-9

Infected 3 Guitar Tabs – Bad Religion

CD, Sheet music, Poster

Do you like Infected 3? Share with your friends now
Bass TabsBass Tabs v2Drum TabsTabsTabs v2Tabs v3Tabs v4
Tuning: 1 step down (DGCFAD)


Only "Infected" is tuned down 1 step.
All other songs on "Stranger Than Fiction" are tuned down 1/2 step.


INTRO:

Rhythm Guitar: (Palm Muted) Play twice

D|-----------------|-----------------|-----------------|-----------------|
A|-----------------|-----------------|-----------------|-----------------|
F|-2-2-2---------4-|-5-5-5-6-7-7-7-5-|-2-2-2---------4-|-5-5-5-6-7-7-7-5-|
C|-2-2-2-2-3-3-3-4-|-5-5-5-6-7-7-7-5-|-2-2-2-2-3-3-3-4-|-5-5-5-6-7-7-7-5-|
G|-0-0-0-2-3-3-3-2-|-3-3-3-4-5-5-5-3-|-0-0-0-2-3-3-3-2-|-3-3-3-4-5-5-5-3-|
D|-------0-1-1-1---|-----------------|-------0-1-1-1---|-----------------|

D|-----------------|-----------------|-----------------|-----------------|
A|-----------------|-----------------|-----------------|-----------------|
F|-2-2-2---------4-|-5-5-5-6-7-7-7-5-|-2-2-2---------4-|-5-5-5-5---------|
C|-2-2-2-2-3-3-3-4-|-5-5-5-6-7-7-7-5-|-2-2-2-2-3-3-3-4-|-5-5-5-5-5-5-5-5-|
G|-0-0-0-2-3-3-3-2-|-3-3-3-4-5-5-5-3-|-0-0-0-2-3-3-3-2-|-3-3-3-3-5-5-5-5-|
D|-------0-1-1-1---|-----------------|-------0-1-1-1---|---------3-3-3-3-|

Lead Guitar:

D|-----------------------------------|-----------------------------------|
A|-----------------------------------|-----------------------------------|
F|--14~------------------------------|-------------------17--14------17--|
C|-----------------------------------|-----------------------------------|
G|--12~------------------------------|-------------------15--12------15--|
D|-----------------------------------|-----------------------------------|

D|-----------------------------------|-----------------------------------|
A|-----------------------------------|-----------------------------------|
F|--14~------------------------------|-------------------------------12--|
C|-----------------------------------|-----------------------------------|
G|--12~------------------------------|-------------------------------10--|
D|-----------------------------------|-----------------------------------|

D|-----------------------------------|-----------------------------------|
A|-----------------------------------|-----------------------------------|
F|--14------14------1414141414-------|--14------14------1414141414-------|
C|-----------------------------------|-----------------------------------|
G|--12------12------1212121212-------|--12------12------1212121212-------|
D|-----------------------------------|-----------------------------------|

D|-----------------------------------|-----------------------------------|
A|-----------------------------------|-----------------------------------|
F|--1414141414------1414141414-------|--1414141414------1414141414-------|
C|-----------------------------------|-----------------------------------|
G|--1212121212------1212121212-------|--1212121212------1212121212-------|
D|-----------------------------------|-----------------------------------|

D|-----------------------------------|-----------------------------------|
A|-----------------------------------|-----------------------------------|
F|--14~------------------------------|-------------------------------12--|
C|-----------------------------------|-----------------------------------|
G|--12~------------------------------|-------------------------------10--|
D|-----------------------------------|-----------------------------------|

D|-----------------------------------|-----------------------------------|
A|-----------------------------------|-----------------------------------|
F|--14~------------------------------|-------------------------------12--|
C|-----------------------------------|-----------------------------------|
G|--12~------------------------------|-------------------------------10--|
D|-----------------------------------|-----------------------------------|

D|-----------------------------------|-----------------------------------|
A|-----------------------------------|-----------------------------------|
F|--14------14------1414141414-------|--14------14------1414141414-------|
C|-----------------------------------|-----------------------------------|
G|--12------12------1212121212-------|--12------12------1212121212-------|
D|-----------------------------------|-----------------------------------|

D|-----------------------------------|-----------------------------------|
A|-----------------------------------|-----------------------------------|
F|--2121212121------2121212121-------|--2121212121------2121212121\------|
C|-----------------------------------|-----------------------------------|
G|--1919191919------1919191919-------|--1919191919------1919191919\------|
D|-----------------------------------|-----------------------------------|


VERSE:

D|-----------------|-----------------|-----------------|-----------------|
A|-----------------|-----------------|-----------------|-----------------|
F|-2-2-2---------4-|-5-5-5-6-7-7-7-5-|-2-2-2---------4-|-5-5-5-6-7-7-7-5-|
C|-2-2-2-2-3-3-3-4-|-5-5-5-6-7-7-7-5-|-2-2-2-2-3-3-3-4-|-5-5-5-6-7-7-7-5-|
G|-0-0-0-2-3-3-3-2-|-3-3-3-4-5-5-5-3-|-0-0-0-2-3-3-3-2-|-3-3-3-4-5-5-5-3-|
D|-------0-1-1-1---|-----------------|-------0-1-1-1---|-----------------|

D|-----------------|-----------------|-----------------|-----------------|
A|-----------------|-----------------|-----------------|-----------------|
F|-2-2-2---------4-|-5-5-5-6-7-7-7-5-|-2-2-2---------4-|-5-5-5-5---------|
C|-2-2-2-2-3-3-3-4-|-5-5-5-6-7-7-7-5-|-2-2-2-2-3-3-3-4-|-5-5-5-5-5-5-5-5-|
G|-0-0-0-2-3-3-3-2-|-3-3-3-4-5-5-5-3-|-0-0-0-2-3-3-3-2-|-3-3-3-3-5-5-5-5-|
D|-------0-1-1-1---|-----------------|-------0-1-1-1---|---------3-3-3-3-|


PRE-CHORUS:

D|-----------------|-----------------|-----------------|-----------------|
A|-----------------|-----------------|-----------------|-----------------|
F|-----------------|-----------------|---------1010109-|---------1010109-|
C|---7-777-8---8---|---3-333-5---5---|-7-7-7-5-1010109-|---7-7-5-1010109-|
G|---7-777-8---8---|---3-333-5---5---|-7-7-7-5-8-8-8-7-|---7-7-5-8-8-8-7-|
D|---5-555-6---6---|---1-111-3---3---|-5-5-5-3---------|---5-5-3---------|

                                                P.M...
D|-----------------|-----------------|-----------------|
A|-----------------|-----------------|-----------------|
F|-----------------|-----------------|-----------------|
C|---7-777-8---8---|---3-333-4---4---|-4---4---4-4-4---|
G|---7-777-8---8---|---3-333-4---4---|-4---4---4-4-4---|
D|---5-555-6---6---|---1-111-2---2---|-2---2---2-2-2---|


CHORUS:

Play twice

D|-----------------|-----------------|-----------------|-----------------|
A|-----------------|-----------------|-----------------|-----------------|
F|-----------------|-5-5-5-5---------|-----------------|-----------------|
C|-7-7-7-7-3-3-3-3-|-5-5-5-5-5-5-5-5-|---7-777-8---8---|---3-333-5---5---|
G|-7-7-7-7-3-3-3-3-|-3-3-3-3-5-5-5-5-|---7-777-8---8---|---3-333-5---5---|
D|-5-5-5-5-1-1-1-1-|---------3-3-3-3-|---5-555-6---6---|---1-111-3---3---|


CHORUS END 1:

D|-----------------|-----------------|
A|-----------------|-----------------|
F|-----------------|-----------------|
C|-7-7-7-7-7-7-7-7-|-8-8-8-8-8-------|
G|-7-7-7-7-7-7-7-7-|-8-8-8-8-8-------|
D|-5-5-5-5-5-5-5-5-|-6-6-6-6-6-------|


Repeat: VERSE, PRE-CHORUS, CHORUS


CHORUS END 2:

D|-----------------|-----------------|
A|-----------------|-----------------|
F|-----------------|-----------------|
C|-7-7-7-7-7-7-7-7-|-7-7-7-7-7-7-7-7-|
G|-7-7-7-7-7-7-7-7-|-7-7-7-7-7-7-7-7-|
D|-5-5-5-5-5-5-5-5-|-5-5-5-5-5-5-5-5-|


BRIDGE:

D|-----------------|-----------------|-----------------|-----------------|
A|-----------------|-----------------|-----------------|-----------------|
F|-----------------|-----------------|-----------------|-----------------|
C|-----------------|-----------------|-----------------|-----------------|
G|-2-2-2-0-----0---|-2-2-2-0-----0---|-2-2-2-0-----0---|-2-2-2-2-2---0---|
D|---------2-------|---------2-------|---------2-------|-----------------|

D|-----------------|-----------------|-----------------|-----------------|
A|-----------------|-----------------|-----------------|-----------------|
F|-----------------|-----------------|-----------------|-----------------|
C|-----------------|-----------------|-----------------|-7-7-7-7-7-7-7-7-|
G|-----------------|-----------------|-5-5-5-5-5-5-5-5-|-7-7-7-7-7-7-7-7-|
D|-2-2-2-0-3---2---|-2-2-2-0-3---2---|-3-3-3-3-3-3-3-3-|-5-5-5-5-5-5-5-5-|


SOLO:

D|-----------------------------------|-----------------------------------|
A|-----------------------------------|-----------------------------------|
F|--16~~------------16~~-------------|--16--14------------14161416--14---|
C|-----------------------------------|------------------16---------------|
G|-----------------------------------|-----------------------------------|
D|-----------------------------------|-----------------------------------|

D|-----------------------------------|----------14-----------------------|
A|-----------------------------------|--------17--17----17~~-------------|
F|----141614-------------------------|----1416------1614-----------------|
C|--16-------------------------------|--16-------------------------------|
G|----------14~~---------------------|-----------------------------------|
D|-----------------------------------|-----------------------------------|

D|--14\\12---------------------------|-----------------------------------|---
A|----------15-----------------------|-----------------------------------|---
F|----------------------1416---------|-----------------------------------|---
C|------------------1215----16-------|-----------------------------------|--9
G|-----------------------------------|---------------------9----10---9---|---
D|-----------------------------------|-----------------9-----------------|---


Play under solo:

D|-----------------|-----------------|
A|-----------------|-----------------|
F|-4-4-4-4-5-5-5-5-|-----------------|
C|-4-4-4-4-5-5-5-5-|-5-5-5-5-7-7-7-7-|
G|-2-2-2-2-3-3-3-3-|-5-5-5-5-7-7-7-7-|
D|-----------------|-3-3-3-3-5-5-5-5-|


INTERLUDE:

Same riff like under solo (5x)


OUTRO:

Same riff like under solo (10x)

Ends on

D|-7-|
A|-7-|
F|-8-|
C|-9-|
G|-9-|
D|-7-|





Comments


Popular Bad Religion tabs & chords
21st Century (Digital Boy) Bass Tabs
Bored And Extremely Dangerous Bass Tabs
You Are 1 Bass Tabs
Flat Earth Society 1 Chords
Along The Way (Solo) Tabs
Atheist Peace Tabs
Generator Tabs
Youve Got A Chance Tabs
Forbidden Beat Ukulele
Punk Rock Song Ukulele


Song lyrics



↑ Back to top | Tablatures and chords are parodies/interpretations of the original songs. You may use it for private study, scholarship, research or language learning purposes only
© 2014 AZChords.com Contact us | Privacy policy | DMCA | Add/correct tabs | Request tabs | Top 50 tabs