>
 >
Individuals

Individuals Bass Tabs

Bad Religion - Individuals chords, tabs, tablatures, lyrics

Guitar lessons | Add/correct | Request | Top 50 tabs Artists:  A B C D E F G H I J K L M N O P Q R S T U V W X Y Z 0-9

Individuals Bass Tabs – Bad Religion

CD, Sheet music, Poster

Do you like Individuals? Share with your friends now
Bass TabsBass Tabs v2Bass Tabs v3
Intro:             x 2
G:-------------------|--------------------------------------| 
D:--------------22---|--------------------------------------| 
A:--4-4-444--00----2-|--4-4-444--0-00-00--2-22-22--2-2------| 
E:-------------------|---------------------------------4-4--| 

Verse:             x 2
G:-------------------|--------------------------------------|  
D:--------------22---|--------------------------------------|  
A:--4-4-444--00----2-|--4-4-444---------4-4-444-------------| 
E:-------------------|----------4-44-44---------4-44-44-----| 

Chorus: 
G:--------------------------------------| 
D:--------------------------------------| 
A:--------------------444---------------| 
E:--5-5-555--4-44-44------000-222-444---| 

G:--------------------------------------| 
D:--------------------------------------| 
A:--------------------------------------| 
E:--5-5-555--4--44-44-------------------| 

Bridge: 
G:--------------------------------------| 
D:--------------------------------------| 
A:--------------------2-2-222--2-22-22--| 
E:--5-5-555--4-44-44--------------------| 

G:--------------------------------------| 
D:--------------------------------------| 
A:--------------------------------------| 
E:--5-5-555--4-44-44--------------------| 

thats it.





Comments


Popular Bad Religion tabs & chords
I Want To Conquer The World Bass Tabs
Los Angeles Is Burning Bass Tabs
Suffer Bass Tabs
1000 Memories Tabs
Let Them Eat War Tabs
Skyscraper 1 Tabs
Social Suicide Intro Tabs
Induvidual Ukulele
Part Lll Ukulele
The Defense Ukulele


Song lyrics



↑ Back to top | Tablatures and chords are parodies/interpretations of the original songs. You may use it for private study, scholarship, research or language learning purposes only
© 2014 AZChords.com Contact us | Privacy policy | DMCA | Add/correct tabs | Request tabs | Top 50 tabs