>
 >
I Love My Computer

I Love My Computer Guitar Tabs

Bad Religion - I Love My Computer chords, tabs, tablatures, lyrics

Guitar lessons | Add/correct | Request | Top 50 tabs Artists:  A B C D E F G H I J K L M N O P Q R S T U V W X Y Z 0-9

I Love My Computer Guitar Tabs – Bad Religion

CD, Sheet music, Poster

Do you like I Love My Computer? Share with your friends now
Bass TabsTabsTabs v2
PROPS GO TO: magdalena abbott *bonji*

"I love my computer" from Bad religion

I would like dadicate this song to consuelo who´s a b@·$# jeje (joking) 
who loves her computer and of course to 
*bad religon*



this is good song, so I hope you could enjoy it 
INTRO:

e-------------------------------------------------------------------------/
b-------------------------------------------------------------------------/
g-------------------------------------------------------------------------/
d-------9-9-9--9-9-------7-7-7--7-7-------------------4-4-4--4-4----------/
a-------7-7-7--7-7-------5-5-5--5-5-----5-5-5--5-5----2-2-2--2-2----------/
e---------------------------------------7-7-7--7-7------------------------/
play this 4 times

and then play the same, but with palm muted when he starts to sing
e----------------------------------------------------------------/
b----------------------------------------------------------------/
g----------------------------------------------------------------/
d---9-9-9-9-9----7-7-7-7-7------------------4-4-4-4-4------------/
a---7-7-7-7-7----5-5-5-5-5-----5-5-5-5-5----2-2-2-2-2------------/
e------------------------------7-7-7-7-7-------------------------/
I love my computer you make me feel all right, every waking hour and
Every lonely night, I love my computer for all you give to me
Predictable errors and not identify…

And THEN::
e---------------------------------------/
b---------------------------------------/
g---------------------------------------/
d-------9-9-9-9-9-------7-7-7-7-7-------/ it never been quite so easy
a-------7-7-7-7-7-------5-5-5-5-5-------/
e---------------------------------------/

e---------------------------------------/
b---------------------------------------/
g---------------------------------------/
d---------------------------------------/ I never been quite so happy...
a-----7-7-7-7-7----9-9-9-9-9------------/ 
e-----5-5-5-5-5----7-7-7-7-7------------/


CHORUS:

e-------------------------------------------------------------------------/
b-------------------------------------------------------------------------/
g--------------------------------------------------------7-7-7-7-7-7-7-7--/
d---9-9-9-9----7-7-7---5-5-5-5-5-5-5---------------------5-5-5-5-5-5-5-5--/
a---7-7-7-7----5-5-5---3-3-3-3-3-3-3-—5-5-5-5-5-5-5-----------------------/
e-------------------------------------3-3-3-3-3-3-3-----------------------/


e----------------------------------------------------------------------/
b----------------------------------------------------------------------/
g----------------------------------------------------------------------/
d---9-9-9-9----7-7-7---5-5-5-5-5-5-5-----------------------------------/
a---7-7-7-7----5-5-5---3-3-3-3-3-3-3-—5-5-5-5-5-5-5---7-7-7-7-7-7-7----/
e-------------------------------------3-3-3-3-3-3-3---5-5-5-5-5-5-5----/
all I need to do is click on you, and we´ll be joined in the most soul-less way
and we´ll never ever ruin each others day, ´cuz when I´m through I just click
and you just go away

-after the chorus play the intro part and bridge-

e-----------------------------------------------------------------/
b-----------------------------------------------------------------/
g-----------------------------------------------------------------/
d---9-9-9--9-9-----7-7-7--7-7----------------4-4-4—4-4------------/
a---7-7-7--7-7-----5-5-5--5-5----5-5-5—5-5---2-2-2—2-2------------/
e--------------------------------7-7-7-7-7------------------------/
  I love my computer you´re always in the mood, I get so turned on
When I turn on you, I love my computer you never ask for more
You can be a princess or you can be my whore

e--------------------------------------------------------------------/
b--------------------------------------------------------------------/
g--------------------------------------------------------------------/
d-------9-9-9-9-9-------7-7-7-7-7------------------------------------/
a-------7-7-7-7-7-------5-5-5-5-5------------------------------------/
e-------------------------------------------7-7-7-7-7---9-9-9-9-9----/
a-------------------------------------------5-5-5-5-5---7-7-7-7-7----/
It´s never been quite so easy, I never been quite so happy

CHORUS: play chorus part

and play the intro part again 
Then play this riff :

e-------------------------------------------------------------------------------------/
b-------------------------------------------------------------------------------------/
g-------------------------------------------------------------------------------------/
d-5-/-4-/-5-/-4-/-5-/-4-/-5-/-4-/---7-/-6-/-7-/-6-/-7-/-6-/-7-/-6---5-/-4-/-5-/-4-/-5-/
a-3-/-2-/-3-/-2-/-3-/-2-/-3-/-2-/---5-/-4-/-5-/-4-/-5-/-4-/-5-/-4---3-/-2-/-3-/-2-/-3-/
e------------------------------------------------------------------------------------
-/
the world outside it´s so big, but it´s safe in my domain, ´cause  to you
I´m just a number and a clever screen name…



SOLO:

e---7-8-7-8-7-8--------------------------------10---------------------------------
b-------------------------------------------12----12-10-11--13/15-12-10-----------
d---------------12-12-11--11-12-11-9-7-^----------------------------------12--14^-
g---------------------------------------------------------------------------------
a---------------------------------------------------------------------------------
e---------------------------------------------------------------------------------

e------------------------------------------------------------------------------
b------------------------------------------------------------------------------
d---12-12-12-11-11-11-12-----9-11--/-7-9--/-5-7--/-3-5-----------------7-9--9/-
g---------------------------------------------------------7-8-9--7-9-----------
a------------------------------------------------------------------------------
e------------------------------------------------------------------------------

e--------------------------------------------------------/
b------------------------12-^^---------------------------/
d--11- 11/12---12/ 14----15-^^---------------------------/
g--------------------------------------------------------/
a--------------------------------------------------------/
e--------------------------------------------------------/

end of solo—

all I need to do is click on you and we´ll be togheter for eternity
and no one is ever gonna take my love from me, cause I got
security, her password and a key....go away...

THAT´S ALL … I hope you enjoy playing this song. :-)





Comments


Popular Bad Religion tabs & chords
Give You Nothing Bass Tabs
Land Of Competition Bass Tabs
Part 1 Bass Tabs
Supersonic 2 Bass Tabs
American Jesus Chords
Bored And Extremely Dangerous Chords
God Song Chords
The Day The Earth Stalled Chords
Dream Of Unity Tabs
Sorrow 7 Tabs


Song lyrics



↑ Back to top | Tablatures and chords are parodies/interpretations of the original songs. You may use it for private study, scholarship, research or language learning purposes only
© 2014 AZChords.com Contact us | Privacy policy | DMCA | Add/correct tabs | Request tabs | Top 50 tabs