>
 >
Honest Goodbye

Honest Goodbye Guitar Tabs

Bad Religion - Honest Goodbye chords, tabs, tablatures, lyrics

Guitar lessons | Add/correct | Request | Top 50 tabs Artists:  A B C D E F G H I J K L M N O P Q R S T U V W X Y Z 0-9

Honest Goodbye Guitar Tabs – Bad Religion

CD, Sheet music, Poster

Do you like Honest Goodbye? Share with your friends now
Bass TabsChordsChords v2TabsTabs v2Tabs v3Ukulele
Bad Religion - Honest Goodbye

Couldn't hear it perfectly from the radio-rip, but this is what I made of it.

Tuning: Drop-C#
NOTE: You might also want to play it in Drop-C, just play everything half a step higher.

Intro
Guitar 1:
D#|-------------------------------------------|
A#|-------------------------------------------|
F#|-------------------------------------------|
C#|-7b8r7-5-/8-7-/10-8---7b8r7-5-/8-7-/12-8---|
G#|-------------------------------------------|
C#|-------------------------------------------|

D#|--------------------------------------------|
A#|--------------------------------------------|
F#|--------------------------------------------|
C#|-7b8r7---/8-7-3-/5-----7b8r7-5-/8-/10-8-7-8-|
G#|-------6------------------------------------|
C#|--------------------------------------------|

Guitar 2:
D#|-------------------------------------------------------------------------|
A#|-------------------------------------------------------------------------|
F#|-------------------------------------------------------------------------|
C#|-1-1-1-1-0-0-0-0-5-5-5-5-/8-8-8-8-1-1-1-1-3-3-3-3-/8-8-8-8-12-12-12-12---|
G#|-1-1-1-1-0-0-0-0-5-5-5-5-/8-8-8-8-1-1-1-1-3-3-3-3-/8-8-8-8-12-12-12-12---|
C#|-1-1-1-1-0-0-0-0-5-5-5-5-/8-8-8-8-1-1-1-1-3-3-3-3-/8-8-8-8-12-12-12-12---| x2

Verse:
Clean
Last time, kick in with distortion on the last chord.
D#|------------------------------------|
A#|-----------------8-8-8-8-7-7-7-7----|
F#|-8-8-8-8-7-7-7-7-7-7-7-7-6-6-6-6----|
C#|-8-8-8-8-7-7-7-7-5-5-5-5-4-4-4-4----|
G#|-6-6-6-6-5-5-5-5--------------------|
C#|------------------------------------|

Now get up and give in I’ll crack your knuckles again
Supplicate and survive this transubstantiation
And get so mean - I want to know what it means


That sick brass boy day dreamin’ - cry baby convict demon Hands so clean - A sympathetic 
blooded killing machine
How did you get so mean? - I want to know what it means…

Chorus:
You might want to leave the last chord out. Couldn't hear it well enough.
D#|-------------------------------------------------------------------------|
A#|-------------------------------------------------------------------------|
F#|-------------------------------------------------------------------------|
C#|-1-1-1-1-0-0-0-0-5-5-5-5-/8-8-8-8-1-1-1-1-3-3-3-3-/8-8-8-8-12-12-12-12---|
G#|-1-1-1-1-0-0-0-0-5-5-5-5-/8-8-8-8-1-1-1-1-3-3-3-3-/8-8-8-8-12-12-12-12---|
C#|-1-1-1-1-0-0-0-0-5-5-5-5-/8-8-8-8-1-1-1-1-3-3-3-3-/8-8-8-8-12-12-12-12---| x2


(Did you laugh?) You know I did
(Did you cry?) I couldn’t get it right
(Did you live?) Always on the edge
(Did you lie?) Causing such a fright
(Did you love?) Oh to be forgiven
(Did you try?) But it wouldn’t be right
God it feels like an honest goodbye

Post-Chorus:
Again, not sure about the C# chords at the end
D#|--------------------------------------------------------------------------|
A#|--------------------------------------------------------------------------|
F#|--------------------------------------------------------------------------|
C#|-1-1-1-1-3-3-3-3-8-8-8-8-12-12-12-12-1-1-1-1-3-3-3-3-/8-8-8-8-12-12-12-12-|
G#|-1-1-1-1-3-3-3-3-8-8-8-8-12-12-12-12-1-1-1-1-3-3-3-3-/8-8-8-8-12-12-12-12-|
C#|-1-1-1-1-3-3-3-3-8-8-8-8-12-12-12-12-1-1-1-1-3-3-3-3-/8-8-8-8-12-12-12-12-|

D#|-------------------------------------------------------------------------|
A#|-------------------------------------------------------------------------|
F#|-------------------------------------------------------------------------|
C#|-1-1-1-1-0-0-0-0-5-5-5-5-/8-8-8-8-1-1-1-1-3-3-3-3-/8-8-8-8-12-12-12-12---|
G#|-1-1-1-1-0-0-0-0-5-5-5-5-/8-8-8-8-1-1-1-1-3-3-3-3-/8-8-8-8-12-12-12-12---|
C#|-1-1-1-1-0-0-0-0-5-5-5-5-/8-8-8-8-1-1-1-1-3-3-3-3-/8-8-8-8-12-12-12-12---|
Whoa ho ooh whoa ooh whoa ooh whoa





Comments


Popular Bad Religion tabs & chords
Eat Your Dog Bass Tabs
Latch Key Kids Bass Tabs
New Dark Ages Bass Tabs
Them And Us 1 Bass Tabs
How Much Is Enough? Chords
American Jesus 4 Tabs
How Much Is Enough? Tabs
The Same Person 1 Tabs
Induvidual Ukulele
Pity The Dead Ukulele


Song lyrics



↑ Back to top | Tablatures and chords are parodies/interpretations of the original songs. You may use it for private study, scholarship, research or language learning purposes only
© 2014 AZChords.com Contact us | Privacy policy | DMCA | Add/correct tabs | Request tabs | Top 50 tabs