» » »

Bad Religion, God Sog Tabs (ver.1)

Artists:  A B C D E F G H I J K L M N O P Q R S T U V W X Y Z # 

God Sog Tabs (ver.1)

Bad Religion Tabs
Rating:
0/5 (0 votes)
God Sog lessons Tabs too difficult? Try these video lessons and learn fast
                Bad Religion-God Song

Intro and Outro
e---------------------------------------------------
B---------------------------------------------------
G-10-10-10----------10-10-10--8---------------------
D-10-10-10-11-11-11-10-10-10--8--10-----------------
A-8--8--8--11-11-11-8--8--8---6--10-----------------
E----------9--9--9---------------8------------------

Verse
e-------------------------------------------
B-------------------------------------------
G-10-10-------10-10--8-8-------10-10--------
D-10-10-11-11-10-10--8-8-10-10-10-10--------
A-8--8--11-11-8--8---6-6-10-10-8--8---------
E-------9--9-------------8--8---------------

Chorus
e-------------------------------------------------
B-------------------------------------------------
G--8-8-8-8-8-8-8-8-8-8-8-10-10-------10-10--------
D--8-8-8-8-8-8-8-8-8-8-8-10-10-11-11-10-10--------
A--6-6-6-6-6-6-6-6-6-6-6-8--8--11-11-8--8---------
E------------------------------9--9---------------
e-------------------------------------------------
B-------------------------------------------------
G--8-8-8-8-8-8-8-8-8------------------------------
D--8-8-8-8-8-8-8-8-8-10-10-10-10-10-10------------
A--6-6-6-6-6-6-6-6-6-10-10-10-10-10-10------------
E--------------------8--8--8--8--8--8-------------

Solo
e------------------------------------------------------------
B---11-13-14-14-13-13-11--11-------------------11------------
G-13--------------------13---12-10----10-12-13---------------
D----------------------------------13------------------------
A------------------------------------------------------------
E------------------------------------------------------------

e------------------------------------------------------------
B--14p13p11-14p13p11-14p13p11-14p13p11-14b-p13p11------------
G-------------------------------------------------13-10------
D------------------------------------------------------------
A------------------------------------------------------------
E------------------------------------------------------------

e------------------------------------------------------------
B-----------11-11-11-11-11----11-----------------------------
G-----10-13----------------13----13-10-----------------------
D--13--------------------------------------------------------
A------------------------------------------------------------
E------------------------------------------------------------
            
Submit corrections

comments powered by Disqus
↑ Back to top | Bad Religion Tabs for God Sog. Lyrics for acoustic guitar and electric guitar. Tablatures and chords are parodies/interpretations of the original songs. You may use it for private study, scholarship, research or language learning purposes only