>
 >
Come Join Us (Solo)

Come Join Us (Solo) Guitar Tabs

Bad Religion - Come Join Us (Solo) chords, tabs, tablatures, lyrics

Guitar lessons | Add/correct | Request | Top 50 tabs Artists:  A B C D E F G H I J K L M N O P Q R S T U V W X Y Z 0-9

Come Join Us (Solo) Guitar Tabs – Bad Religion

CD, Sheet music, Poster

Do you like Come Join Us (Solo)? Share with your friends now
Tabs
BAD RELIGION - Come Join Us -solo    



(It's not 100%, but it is ok, I hope..........)

  E5                               C5

  Gtr II
  Q  E Q.     Q    Q  E Q.     Q    Q  E Q.     Q    Q  E Q.     Q
|----------------|----------------|----------------|-----------------|
|----------------|----------------|----------------|-----------------|
|-9--9-9-----12--|-9--9-9-----12--|-9--9-9-----12--|-9--9-9-----12\--|
|-x--x-x------x--|-x--x-x------x--|-x--x-x------x--|-x--x-x------x---|
|-7--7-7-----10--|-7--7-7-----10--|-7--7-7-----10--|-7--7-7-----10\--|
|----------------|----------------|----------------|-----------------| 


  G5                        D5

    E E  Q    S  S  E  Q     Q       E  E  +E   E   Q
|-/17---15---12h15p12-----|----------------------------|
|---------------------15--|-15b17===15-15-(15)r15r-15--|
|-------------------------|----------------------------|
|-------------------------|----------------------------|
|-------------------------|----------------------------|
|-------------------------|----------------------------|


  E5
 
   Q      E  Q   E  Q     H..            E
|--------12-12--12-----|------------------------|
|-15b17------------15--|-15b17-----------xb16\--|
|----------------------|------------------------|
|----------------------|------------------------|
|----------------------|------------------------|
|----------------------|------------------------|


                           C5

   H.              q        Q      E  Q   e  q
|------------------------|----------------------|
|------------------------|----------------------|
|-14b16-----------14pb16-|-14b16r=14p12-----12--|
|------------------------|---------------14-----|
|------------------------|----------------------|
|------------------------|----------------------|


  E5                              G5        D5

   H            +E    Q       E    Q      E  Q   +E   E  E
|-------------------------------|--------------------------|
|-------------------------------|-----------15--(15)-15-15-|
|-14pb16=======(14)r-14b16r==14-|-14b16r=14----------------|
|-------------------------------|--------------------------|
|-------------------------------|--------------------------|
|-------------------------------|--------------------------|


  E5                                 C5
 

   E  +E       E  E  E   +E   E  E    E  E  E  Q   E  E E
|----------------------------------|----------------------|
|-15-(15)b17==15-15-15r-(15)-15-15-|-15p13-13-13--13-13-x-|
|----------------------------------|----------------------|
|----------------------------------|----------------------|
|----------------------------------|----------------------|
|----------------------------------|----------------------|


  G5                      D5
 
   E  E  E  E  E  E  Q     W
|-----------------------|---------------|
|-12h13p12--------------|---------------|
|----------12-14p12-----|---------------|
|-------------------14--|-12------------|
|-----------------------|---------------|
|-----------------------|---------------|


Duration Legend
---------------
W - whole; H - half; Q - quarter; E - 8th; S - 16th; T - 32nd; X - 64th; a - acciaccatura
+ - note tied to previous; . - note dotted; .. - note double dotted
Uncapitalized letters represent notes that are staccato (1/2 duration)
Irregular groupings are notated above the duration line
Duration letters will always appear directly above the note/fret number it represents the
duration for.  Duration letters with no fret number below them represent rests.  Multi-
bar rests are notated in the form Wxn, where n is the number of bars to rest for.  Low
melody durations appear below the staff

Tablature Legend
----------------
 h   - hammer-on
 p   - pull-off
 b   - bend
 pb  - pre-bend
 r   - bend release (if no number after the r, then release immediately)
 /\  - slide into or out of (from/to "nowhere")
 s   - legato slide
 S   - shift slide
  - natural harmonic
[n]  - artificial harmonic
n(n) - tapped harmonic
 ~   - vibrato
 tr  - trill
 T   - tap
 TP  - trem. picking
 PM  - palm muting
\n/  - tremolo bar dip; n = amount to dip
 \n  - tremolo bar down
 n/  - tremolo bar up
/n\  - tremolo bar inverted dip
 =   - hold bend; also acts as connecting device for hammers/pulls
   - volume swell (louder/softer)
 x   - on rhythm slash represents muted slash
 o   - on rhythm slash represents single note slash

Misc Legend
-----------
 |  - bar
||  - double bar
||o - repeat start
o|| - repeat end
*|  - double bar (ending)
 :  - bar (freetime)
 $  - Segno
 &  - Coda
Tempo markers -  = BPM(8/16=s8/s16), where s8 = swing 8ths, s16 = swing 16ths


***************************************************************************************
***************************************************************************************





Comments


Popular Bad Religion tabs & chords
Along The Way Bass Tabs
Fuck Armageddon... This Is Hell! 1 Bass Tabs
Delirium Of Disorder Chords
Henchman Chords
A Walk 2 Tabs
Dept Of False Hope Tabs
Generator 1 Tabs
No Direction Tabs
When Tabs
Scrutiny Ukulele


Song lyrics



↑ Back to top | Tablatures and chords are parodies/interpretations of the original songs. You may use it for private study, scholarship, research or language learning purposes only
© 2014 AZChords.com Contact us | Privacy policy | DMCA | Add/correct tabs | Request tabs | Top 50 tabs