» » »

Bad Religion, Chasing The Wild Goose Tabs (ver.1)

Artists:  A B C D E F G H I J K L M N O P Q R S T U V W X Y Z # 

Chasing The Wild Goose Tabs (ver.1)

Bad Religion Tabs
 Rating:
4/5 (4 votes)
Chasing The Wild Goose lessons Tabs too difficult? Try these video lessons and learn fast
                
This is a nice revival-style ballad and very easy to play.
Sorry if the tab looks messy.

Standard tuning (E A D G B e)

Key:

p = pull-off
X = muted note
()= optional note

Intro:

e|-------------------------------------------------------------|
B|-------------------------------------------------------------|
G|---4p0-XX--7-7-----5--5-----4p0-XX---4p0-XX--7--7-----5--5---|
D|---5p0-XX--7--7-7--5---5----5p0-XX---5p0-XX--7---7-7--5---5--|
A|-5-5p0-XX--5---5---3----3-3-5p0-XX-5-5p0-XX--5----5---3----3-|
E|-3-3p0-XX-----------------5-3p0-XX-3-3p0-XX------------------|

Riff:

e|--------------------------------------------------------------------|
B|--------------------------------------------------------------------|
G|---------------------------------------------------------5-----7----|
D|5-5-X-5-5-5-X-5-5-5-X-5-5-5-X-5-5-5-X-5-5-5-X-5-5-5-X----5-----7----|
A|5-5-X-5-5-5-X-5-5-5-X-5-5-5-X-5-5-5-X-5-5-5-X-5-5-5-X----3-----5----|
E|3-3-X-3-3-3-X-3-3-3-X-3-3-3-X-3-3-3-X-3-3-3-X-3-3-3-X---------------|

Verse:

                                  (Let ring)
e|----------------------------------------------------------------|
B|----------------------------------------------------------------|
G|--------------------------------7---------7-7-77----------------|
D|5-5-5-5-5-5-5-5-5-5-5-5-5-5-5-557---------7-7-775-5-5-5-5-5-5-5-|
A|5-5-5-5-5-5-5-5-5-5-5-5-5-5-5-555---------5-5-555-5-5-5-5-5-5-5-|
E|3-3-3-3-3-3-3-3-3-3-3-3-3-3-3-33----------------3-3-3-3-3-3-3-3-|

                                  (Let ring)
e|----------------------------------------------------------------|
B|----------------------------------------------------------------|
G|--------------------------------7---------7-7-77----------------|
D|5-5-5-5-5-5-5-5-5-5-5-5-5-5-5-557---------7-7-775-5-5-5-5-5-5-5-|
A|5-5-5-5-5-5-5-5-5-5-5-5-5-5-5-555---------5-5-555-5-5-5-5-5-5-5-|
E|3-3-3-3-3-3-3-3-3-3-3-3-3-3-3-33----------------3-3-3-3-3-3-3-3-|

                  (Let ring)      (Let ring)
e|----------------------------------------------------------------|
B|----------------------------------------------------------------|
G|----------------7---------7-7-775---------5-5-55----------------|
D|5-5-5-5-5-5-5-557---------7-7-775---------5-5-555-5-5-5-5-5-5-5-|
A|5-5-5-5-5-5-5-555---------5-5-553---------3-3-335-5-5-5-5-5-5-5-|
E|3-3-3-3-3-3-3-33--------------------------------3-3-3-3-3-3-3-3-|

                  (Let ring)      (Let ring)
e|----------------------------------------------------------------|
B|----------------------------------------------------------------|
G|----------------7---------7-7-775---------5-5-55----------------|
D|5-5-5-5-5-5-5-557---------7-7-775---------5-5-555-5-5-5-5-5-5-5-|
A|5-5-5-5-5-5-5-555---------5-5-553---------3-3-335-5-5-5-5-5-5-5-|
E|3-3-3-3-3-3-3-33--------------------------------3-3-3-3-3-3-3-3-|

e|------------------------------------------------|
B|------------------------------------------------|
G|----------------------------------------5---7---|
D|5-5-5-5-5-5-5-5-5-5-5-5-5-5-5-5-5-5-5-5-5---7---|
A|5-5-5-5-5-5-5-5-5-5-5-5-5-5-5-5-5-5-5-5-3---5---|
E|3-3-3-3-3-3-3-3-3-3-3-3-3-3-3-3-3-3-3-3---------|

Chorus:

e|----------------------------------------------------------------|
B|----------------------------------------------------------------|
G|----------------7-7-7-7-7-7-7-775-5-5-5-5-5-5-55----------------|
D|5-5-5-5-5-5-5-557-7-7-7-7-7-7-775-5-5-5-5-5-5-555-5-5-5-5-5-5-55|
A|5-5-5-5-5-5-5-555-5-5-5-5-5-5-553-3-3-3-3-3-3-335-5-5-5-5-5-5-55|
E|3-3-3-3-3-3-3-33--------------------------------3-3-3-3-3-3-3-33|

e|----------------------------------------------------------------|
B|----------------------------------------------------------------|
G|----------------7-7-7-7-7-7-7-775-5-5-5-5-5-5-55----------------|
D|5-5-5-5-5-5-5-557-7-7-7-7-7-7-775-5-5-5-5-5-5-555-5-5-5-5-5-5-55|
A|5-5-5-5-5-5-5-555-5-5-5-5-5-5-553-3-3-3-3-3-3-335-5-5-5-5-5-5-55|
E|3-3-3-3-3-3-3-33--------------------------------3-3-3-3-3-3-3-33|

e|----------------------------------------------------------------|
B|----------------------------------------------------------------|
G|----------------7-7-7-7-7-7-7-775-5-5-5-5-5-5-55----------------|
D|5-5-5-5-5-5-5-557-7-7-7-7-7-7-775-5-5-5-5-5-5-555-5-5-5-5-5-5-55|
A|5-5-5-5-5-5-5-555-5-5-5-5-5-5-553-3-3-3-3-3-3-335-5-5-5-5-5-5-55|
E|3-3-3-3-3-3-3-33--------------------------------3-3-3-3-3-3-3-33|

e|------------------------------------------------|
B|------------------------------------------------|
G|----------------5-5-5-5-5-5-5-557-7-7-7-7-7-7-77|
D|5-5-5-5-5-5-5-555-5-5-5-5-5-5-557-7-7-7-7-7-7-77|
A|5-5-5-5-5-5-5-553-3-3-3-3-3-3-335-5-5-5-5-5-5-55|
E|3-3-3-3-3-3-3-33--------------------------------|

e|----------------------------------------------------------------|
B|----------------------------------------------------------------|
G|--------------------------------------------------------5---7---|
D|5-5-5-5-5-5-5-5-5-5-5-5-5-5-5-5-5-5-5-5-5-5-5-5-5-5-5-5-5---7---|
A|5-5-5-5-5-5-5-5-5-5-5-5-5-5-5-5-5-5-5-5-5-5-5-5-5-5-5-5-3---5---|
E|3-3-3-3-3-3-3-3-3-3-3-3-3-3-3-3-3-3-3-3-3-3-3-3-3-3-3-3---------|

Verse:

                                  (Let ring)
e|----------------------------------------------------------------|
B|----------------------------------------------------------------|
G|--------------------------------7---------7-7-77----------------|
D|5-5-5-5-5-5-5-5-5-5-5-5-5-5-5-557---------7-7-775-5-5-5-5-5-5-5-|
A|5-5-5-5-5-5-5-5-5-5-5-5-5-5-5-555---------5-5-555-5-5-5-5-5-5-5-|
E|3-3-3-3-3-3-3-3-3-3-3-3-3-3-3-33----------------3-3-3-3-3-3-3-3-|

                                  (Let ring)
e|----------------------------------------------------------------|
B|----------------------------------------------------------------|
G|--------------------------------7---------7-7-77----------------|
D|5-5-5-5-5-5-5-5-5-5-5-5-5-5-5-557---------7-7-775-5-5-5-5-5-5-5-|
A|5-5-5-5-5-5-5-5-5-5-5-5-5-5-5-555---------5-5-555-5-5-5-5-5-5-5-|
E|3-3-3-3-3-3-3-3-3-3-3-3-3-3-3-33----------------3-3-3-3-3-3-3-3-|

                  (Let ring)      (Let ring)
e|----------------------------------------------------------------|
B|----------------------------------------------------------------|
G|----------------7---------7-7-775---------5-5-55----------------|
D|5-5-5-5-5-5-5-557---------7-7-775---------5-5-555-5-5-5-5-5-5-5-|
A|5-5-5-5-5-5-5-555---------5-5-553---------3-3-335-5-5-5-5-5-5-5-|
E|3-3-3-3-3-3-3-33--------------------------------3-3-3-3-3-3-3-3-|

                  (Let ring)      (Let ring)
e|----------------------------------------------------------------|
B|----------------------------------------------------------------|
G|----------------7---------7-7-775---------5-5-55----------------|
D|5-5-5-5-5-5-5-557---------7-7-775---------5-5-555-5-5-5-5-5-5-5-|
A|5-5-5-5-5-5-5-555---------5-5-553---------3-3-335-5-5-5-5-5-5-5-|
E|3-3-3-3-3-3-3-33--------------------------------3-3-3-3-3-3-3-3-|

e|------------------------------------------------|
B|------------------------------------------------|
G|----------------------------------------5---7---|
D|5-5-5-5-5-5-5-5-5-5-5-5-5-5-5-5-5-5-5-5-5---7---|
A|5-5-5-5-5-5-5-5-5-5-5-5-5-5-5-5-5-5-5-5-3---5---|
E|3-3-3-3-3-3-3-3-3-3-3-3-3-3-3-3-3-3-3-3---------|

Chorus:

e|----------------------------------------------------------------|
B|----------------------------------------------------------------|
G|----------------7-7-7-7-7-7-7-775-5-5-5-5-5-5-55----------------|
D|5-5-5-5-5-5-5-557-7-7-7-7-7-7-775-5-5-5-5-5-5-555-5-5-5-5-5-5-55|
A|5-5-5-5-5-5-5-555-5-5-5-5-5-5-553-3-3-3-3-3-3-335-5-5-5-5-5-5-55|
E|3-3-3-3-3-3-3-33--------------------------------3-3-3-3-3-3-3-33|

e|----------------------------------------------------------------|
B|----------------------------------------------------------------|
G|----------------7-7-7-7-7-7-7-775-5-5-5-5-5-5-55----------------|
D|5-5-5-5-5-5-5-557-7-7-7-7-7-7-775-5-5-5-5-5-5-555-5-5-5-5-5-5-55|
A|5-5-5-5-5-5-5-555-5-5-5-5-5-5-553-3-3-3-3-3-3-335-5-5-5-5-5-5-55|
E|3-3-3-3-3-3-3-33--------------------------------3-3-3-3-3-3-3-33|

e|----------------------------------------------------------------|
B|----------------------------------------------------------------|
G|----------------7-7-7-7-7-7-7-775-5-5-5-5-5-5-55----------------|
D|5-5-5-5-5-5-5-557-7-7-7-7-7-7-775-5-5-5-5-5-5-555-5-5-5-5-5-5-55|
A|5-5-5-5-5-5-5-555-5-5-5-5-5-5-553-3-3-3-3-3-3-335-5-5-5-5-5-5-55|
E|3-3-3-3-3-3-3-33--------------------------------3-3-3-3-3-3-3-33|

e|------------------------------------------------|
B|------------------------------------------------|
G|----------------5-5-5-5-5-5-5-557-7-7-7-7-7-7-77|
D|5-5-5-5-5-5-5-555-5-5-5-5-5-5-557-7-7-7-7-7-7-77|
A|5-5-5-5-5-5-5-553-3-3-3-3-3-3-335-5-5-5-5-5-5-55|
E|3-3-3-3-3-3-3-33--------------------------------|

e|----------------------------------------------------------------------|
B|----------------------------------------------------------------------|
G|--------------------------------------------------------5---7---------|
D|5-5-5-5-5-5-5-5-5-5-5-5-5-5-5-5-5-5-5-5-5-5-5-5-5-5-5-5-5---7---(5)---|
A|5-5-5-5-5-5-5-5-5-5-5-5-5-5-5-5-5-5-5-5-5-5-5-5-5-5-5-5-3---5---(5)---|
E|3-3-3-3-3-3-3-3-3-3-3-3-3-3-3-3-3-3-3-3-3-3-3-3-3-3-3-3---------(3)---|
            
Submit corrections

comments powered by Disqus
↑ Back to top | Bad Religion Tabs for Chasing The Wild Goose. Lyrics for acoustic guitar and electric guitar. Tablatures and chords are parodies/interpretations of the original songs. You may use it for private study, scholarship, research or language learning purposes only