» » »

Bad Religion, American Jesus Tabs (ver.3)

Artists:  A B C D E F G H I J K L M N O P Q R S T U V W X Y Z # 

American Jesus Tabs (ver.3)

Bad Religion Tabs
Rating:
5/5 (1 vote)
American Jesus lessons Tabs too difficult? Try these video lessons and learn fast
                Intro
Riff:

E|---------------------------|    |---------------------------------|
B|---------------------------|    |---------------------------------|
G|---------------------------|    |---------------------------------|
D|---------------------------| x5 |---------------------------------|
A|-0--0--2/3--2/3--5--3/2/3/2|    |--0--0--2/3--2--5--/neck slide/--|
e|---------------------------|    |---------------------------------|

Verse

E|--------------------------|    |----------------------|
B|--------------------------|    |----------------------|
G|--------------------------|    |--------------------9-|
D|-7-----10-----3-----5-----| x3 |-7-----10-----3-----9-|
A|-7-x8--10-x8--3-x8--5-x8--|    |-7-x8--10-x8--3-x8--7-|
e|-5-----8------1-----3-----|    |-5-----8------1-------|

Chorus

E|-------------------------|    |--------------------------------------------|
B|-------------------------|    |--------------------------------------------|
G|-------------------------|    |--------------------9------------------9----|
D|-7-----10-----3-----5----| x2 |-7-----10-----3-----9-x4--7-----10-----9----|x8
A|-7-x4--10-x4--3-x4--5-x4-|    |-7-x4--10-x4--3-x4--7-----7-x5--10-x4--7----|
e|-5-----8------1-----3----|    |-5-----8------1-----------5-----8-----------|

Solo

E|----------------------------|
B|----------------------------|
G|----------------------------|
D|----------------------------| x4
A|-0--0--2/3--2/3--5--3/2/3/2-|
e|----------------------------|

Verse

E|--------------------------|    |------------------------------------|
B|--------------------------|    |------------------------------------|
G|--------------------------|    |--------------------9---------------|
D|-7-----10-----3-----5-----| x3 |-7-----10-----3-----9--/neck slide/-|
A|-7-x8--10-x8--3-x8--5-x8--|    |-7-x8--10-x8--3-x8--7---------------|
e|-5-----8------1-----3-----|    |-5-----8------1---------------------|

Chorus

E|-------------------------|    |--------------------------------------------|
B|-------------------------|    |--------------------------------------------|
G|-------------------------|    |--------------------9------------------9----|
D|-7-----10-----3-----5----| x2 |-7-----10-----3-----9-x4--7-----10-----9x16-|
A|-7-x4--10-x4--3-x4--5-x4-|    |-7-x4--10-x4--3-x4--7-----7-x5--10-x4--7----|
e|-5-----8------1-----3----|    |-5-----8------1-----------5-----8-----------|

Bass solo

at "He's the preacher on TV":

E|---------------------------------------------------|
B|---------------------------------------------------|
G|---------------------------------------------9-----|
D|-7-----10-----3-----5-----7-----10-----3-----9-x16-|
A|-7-x8--10-x8--3-x8--5-x8--7-x8--10-x8--3-x8--7-----|
e|-5-----8------1-----3-----5-----8------1-----------|

Verse

E|--------------------------|    |----------------------|
B|--------------------------|    |----------------------|
G|--------------------------|    |--------------------9-|
D|-7-----10-----3-----5-----| x3 |-7-----10-----3-----9-|
A|-7-x8--10-x8--3-x8--5-x8--|    |-7-x8--10-x8--3-x8--7-|
e|-5-----8------1-----3-----|    |-5-----8------1-------|

Chorus

E|-------------------------|    |--------------------------------------------|
B|-------------------------|    |--------------------------------------------|
G|-------------------------|    |--------------------9------------------9----|
D|-7-----10-----3-----5----| x5 |-7-----10-----3-----9-x4--7-----10-----9x16-|
A|-7-x4--10-x4--3-x4--5-x4-|    |-7-x4--10-x4--3-x4--7-----7-x5--10-x4--7----|
e|-5-----8------1-----3----|    |-5-----8------1-----------5-----8-----------|

Riff:

E|---------------------------|
B|---------------------------|
G|---------------------------|
D|---------------------------| x12 times
A|-0--0--2/3--2/3--5--3/2/3/2|
e|---------------------------|

And that's about it.
            

comments powered by Disqus
↑ Back to top | Bad Religion Tabs for American Jesus. Lyrics for acoustic guitar and electric guitar. Tablatures and chords are parodies/interpretations of the original songs. You may use it for private study, scholarship, research or language learning purposes only