» » »

Bad Religion, 52 Seconds Bass tabs (ver.1)

Artists:  A B C D E F G H I J K L M N O P Q R S T U V W X Y Z # 

52 Seconds Bass tabs (ver.1)

Bad Religion Tabs
 Rating:
4.2/5 (5 votes)
52 Seconds lessons Tabs too difficult? Try these video lessons and learn fast
1
                
52 SECONDS (Bassline)
As recorded by Bad Religion
(From the 2007 Album NEW MAPS OF HELL)

	

Words and Music by Bad Religion
Arranged by Bad Religion

Gtr I (E A D G) - 'Untitled'

 Intro
  Q=169
 4/4          3/4
  Gtr I
  Wx3          H.
|------------|-------|
|------------|-------|
|------------|-------|
|------------|-------|


 4/4
  E S E S E E S E S E   E S E S E E S E S E
|---------------------|---------------------|
|---------------------|---------------------|
|---------------------|---------------------|
|-3-3-3-3-3-2-2-2-2-2-|-1-1-1-1-1-0-0-0-0-0-|


  E S E S E E S E S E   E S E S E E S E S E
|---------------------|----------------------||
|---------------------|----------------------||
|---------------------|----------------------||
|-3-3-3-3-3-2-2-2-2-2-|-1-1-1-1-1-0-0-0-0-0--||


   Verse
    E S E S E E S E S E   E S E S E E S E S E
||----------------------|---------------------|
||o---------------------|---------------------|
||o---------------------|---------------------|
||--3-3-3-3-3-2-2-2-2-2-|-1-1-1-1-1-0-0-0-0-0-|


  E S E S E E S E S E   E S E S E E S E S E
|---------------------|------------------------||
|---------------------|-----------------------o||
|---------------------|-----------------------o||
|-3-3-3-3-3-2-2-2-2-2-|-1-1-1-1-1-0-0-0-0-0----||


   horus
    E E E E E E Q     E  E  E  E  E  E  Q
||-----------------|------------------------|
||o----------------|------------------------|
||o-3-3-3-3-3-3-3S=|=15-15-15-15-15-15-15\--|
||-----------------|------------------------|


  E E E E E E E E   S +S  E E E E E E E
|-----------------|----------------------|
|-----------------|----------------------|
|-----------------|---------6---4h6p4----|
|-4-4-4-4-4-4-4-4-|-4-(4)s8---6-------6--|


 Bridge
  E S E S E E S E S E   E S E S E E S E S E
|---------------------|---------------------|
|---------------------|---------------------|
|---------------------|---------------------|
|-3-3-3-3-3-2-2-2-2-2-|-1-1-1-1-1-0-0-0-0-0-|


  E S E S E E S E S E   E S E S E E S E S E
|---------------------|----------------------||
|---------------------|---------------------o||
|---------------------|---------------------o||
|-3-3-3-3-3-2-2-2-2-2-|-1-1-1-1-1-0-0-0-0-0--||


 Out-Verse
  E S E S E E S E S E   E S E S E E S E S E
|---------------------|---------------------|
|---------------------|---------------------|
|---------------------|---------------------|
|-3-3-3-3-3-2-2-2-2-2-|-1-1-1-1-1-0-0-0-0-0-|


  E S E S E E S E S E   E S E S E E S E S E
|---------------------|---------------------|
|---------------------|---------------------|
|---------------------|---------------------|
|-3-3-3-3-3-2-2-2-2-2-|-1-1-1-1-1-0-0-0-0-0-|


  E S E S E E S E S E   E S E S E E S E S E
|---------------------|---------------------|
|---------------------|---------------------|
|---------------------|---------------------|
|-3-3-3-3-3-2-2-2-2-2-|-1-1-1-1-1-0-0-0-0-0-|


   E  S  E  S  E E S E S E   E S E S E E S E S E   q  H.
|--------------------------|---------------------|----------*|
|--------------------------|---------------------|----------*|
|-10-10-10-10-10-9-9-9-9-9-|-8-8-8-8-8-7-7-7-7-7-|----------*|
|--------------------------|---------------------|-8--------*|



Duration Legend
---------------
W - whole; H - half; Q - quarter; E - 8th; S - 16th; T - 32nd; X - 64th; a - acciaccatura
+ - note tied to previous; . - note dotted; .. - note double dotted
Uncapitalized letters represent notes that are staccato (1/2 duration)
Irregular groupings are notated above the duration line
Duration letters will always appear directly above the note/fret number it represents the
duration for.  Duration letters with no fret number below them represent rests.  Multi-
bar rests are notated in the form Wxn, where n is the number of bars to rest for.  Low
melody durations appear below the staff

Tablature Legend
----------------
 h   - hammer-on
 p   - pull-off
 b   - bend
 pb  - pre-bend
 r   - bend release (if no number after the r, then release immediately)
 /\  - slide into or out of (from/to "nowhere")
 s   - legato slide
 S   - shift slide
 - natural harmonic
[n]  - artificial harmonic
n(n) - tapped harmonic
 ~   - vibrato
 tr  - trill
 T   - tap
 TP  - trem. picking
 PM  - palm muting
\n/  - tremolo bar dip; n = amount to dip
 \n  - tremolo bar down
 n/  - tremolo bar up
/n\  - tremolo bar inverted dip
 =   - hold bend; also acts as connecting device for hammers/pulls
 <> - volume swell (louder/softer)
 x   - on rhythm slash represents muted slash
 o   - on rhythm slash represents single note slash

Misc Legend
-----------
 |  - bar
||  - double bar
||o - repeat start
o|| - repeat end
*|  - double bar (ending)
 :  - bar (freetime)
 $  - Segno
 &  - Coda
Tempo markers -  = BPM(8/16=s8/s16), where s8 = swing 8ths, s16 = swing 16ths
            
Submit corrections

comments powered by Disqus
↑ Back to top | Bad Religion Bass for 52 Seconds. Lyrics for acoustic guitar and electric guitar. 1 Tablatures and chords are parodies/interpretations of the original songs. You may use it for private study, scholarship, research or language learning purposes only