» » »

Bad Religion, 21st Century (Digital Boy) Bass tabs (ver.1)

Artists:  A B C D E F G H I J K L M N O P Q R S T U V W X Y Z # 

21st Century (Digital Boy) Bass tabs (ver.1)

Bad Religion Tabs
 Rating:
4/5 (4 votes)
21st Century (Digital Boy) lessons Tabs too difficult? Try these video lessons and learn fast
                -------------------------------------------------------------------------------
		 21st Century Digital Boy - Bad Religion
-------------------------------------------------------------------------------


Tuning: E A D G


 Intro
G|--------|--------|--------|--------|
D|--------|--------|--------|--------|
A|--------|--------|--------|--------|
E|-4-4-4-4|-4-4-4-4|-4-4-4-4|-4-4-4-4|

 Verse
G|--------|--------|--------|--------|--------|--------|--------|--------|
D|--------|--------|--------|--------|--------|--------|--------|--------|
A|-4-4-x--|--------|--------|--------|-4-4-x--|--------|--------|--------|
E|--------|-0-0-x--|-2-2-x--|-5-5-4-4|--------|-0-0-x--|-2-2-x--|-5-5-4-4|

G|--------|--------|--------|--------|--------|--------|--------|--------|
D|--------|--------|--------|--------|--------|--------|--------|--------|
A|-4-4----|--------|--------|--------|-4-4----|--------|--------|--------|
E|--------|-0-0----|-2-2----|-5-5-4-4|--------|-0-2-/-4|-x------|--------|

G|--------|--------|--------|--------|--------|--------|--------|--------|
D|--------|--------|--------|--------|--------|--------|--------|--------|
A|-4-4-x--|--------|--------|--------|-4-4-x--|--------|--------|--------|
E|--------|-0-0-x--|-2-2-x--|-5-5-4-4|--------|-0-0-x--|-2-2-x--|-5-5-4-4|

G|--------|--------|--------|--------|--------|--------|--------|--------|
D|--------|--------|--------|--------|--------|--------|--------|--------|
A|-4-4----|--------|--------|--------|-4-4-x--|--------|--------|--------|
E|--------|-0-0----|-2-2----|-5-5-4-4|--------|-0-2-/-4|--------|--------|

 Pre Chorus
G|--------|--------|--------|--------|
D|--------|--------|--------|--------|
A|--------|--------|--------|--------|
E|-4-4-4-4|-4-4-4-4|-4-4-4-4|-4-4-4-4|

 Chorus
G|--------|--------|--------|--------|--------|--------|--------|--------|
D|--------|--------|--------|--------|--------|--------|--------|--------|
A|-4-4-4-4|--------|--------|--------|-4-4-4-4|--------|--------|--------|
E|--------|-5-5-5-5|-0-0-0-0|-2-2-2-2|--------|-5-5-5-5|-0-0-0-0|-2-2-2-2|

G|--------|--------|--------|--------|--------|--------|--------|--------|
D|--------|--------|--------|--------|--------|--------|--------|--------|
A|-4-4-4-4|--------|--------|--------|-4-4-4-4|--------|--------|--------|
E|--------|-5-5-5-5|-0-0-0-0|-2-2-2-2|--------|-5-5-5-5|-0-0-0-0|-2-2-2-2|

G|--------|--------|--------|--------|
D|--------|--------|--------|--------|
A|--------|--------|--------|--------|
E|-4-4-4-4|-4-4-4-4|-4-4-4-4|-4-4-4-4|

 Post Chorus
G|--------|--------|--------|--------|--------|--------|--------|--------|
D|--------|--------|--------|--------|--------|--------|--------|--------|
A|-4-4-x--|--------|--------|--------|-4-4-x--|--------|--------|--------|
E|--------|-0-0-x--|-2-2-x--|-5-5-4-4|--------|-0-2-/-4|--------|--------|

 Verse
G|--------|--------|--------|--------|--------|--------|--------|--------|
D|--------|--------|--------|--------|--------|--------|--------|--------|
A|-4-4-x--|--------|--------|--------|-4-4-x--|--------|--------|--------|
E|--------|-0-0-x--|-2-2-x--|-5-5-4-4|--------|-0-0-x--|-2-2-x--|-5-5-4-4|

G|--------|--------|--------|--------|--------|--------|--------|--------|
D|--------|--------|--------|--------|--------|--------|--------|--------|
A|-4-4----|--------|--------|--------|-4-4-x--|--------|--------|--------|
E|--------|-0-0----|-2-2----|-5-5-4-4|--------|-0-2-/-4|--------|--------|

G|--------|--------|--------|--------|--------|--------|--------|--------|
D|--------|--------|--------|--------|--------|--------|--------|--------|
A|-4-4-x--|--------|--------|--------|-4-4-x--|--------|--------|--------|
E|--------|-0-0-x--|-2-2-x--|-5-5-4-4|--------|-0-0-x--|-2-2-x--|-5-5-4-4|

G|--------|--------|--------|--------|--------|--------|--------|--------|
D|--------|--------|--------|--------|--------|--------|--------|--------|
A|-4-4----|--------|--------|--------|-4-4-x--|--------|--------|--------|
E|--------|-0-0----|-2-2----|-5-5-4-4|--------|-0-2-/-4|--------|--------|

 Pre Chorus
G|--------|--------|--------|--------|
D|--------|--------|--------|--------|
A|--------|--------|--------|--------|
E|-4-4-4-4|-4-4-4-4|-4-4-4-4|-4-4-4-4|

 Chorus
G|--------|--------|--------|--------|--------|--------|--------|--------|
D|--------|--------|--------|--------|--------|--------|--------|--------|
A|-4-4-4-4|--------|--------|--------|-4-4-4-4|--------|--------|--------|
E|--------|-5-5-5-5|-0-0-0-0|-2-2-2-2|--------|-5-5-5-5|-0-0-0-0|-2-2-2-2|

G|--------|--------|--------|--------|--------|--------|--------|--------|
D|--------|--------|--------|--------|--------|--------|--------|--------|
A|-4-4-4-4|--------|--------|--------|-4-4-4-4|--------|--------|--------|
E|--------|-5-5-5-5|-0-0-0-0|-2-2-2-2|--------|-5-5-5-5|-0-0-0-0|-2-2-2-2|

G|--------|--------|--------|--------|
D|--------|--------|--------|--------|
A|--------|--------|--------|--------|
E|-4-4-4-4|-4-4-4-4|-4-4-4-4|-4-4-/-6|

 Bridge
G|--------|--------|--------|--------|--------|--------|--------|--------|
D|--------|--------|--------|--------|--------|--------|--------|--------|
A|--------|--------|--------|--------|--------|--------|--------|--------|
E|-6-R----|-6-R----|-2-R----|-2-R----|-5-R----|-5-R----|-2-R----|-4-4-4--|

 Chorus
G|--------|--------|--------|--------|--------|--------|--------|--------|
D|--------|--------|--------|--------|--------|--------|--------|--------|
A|-4-4-4-4|--------|--------|--------|-4-4-4-4|--------|--------|--------|
E|--------|-5-5-5-5|-0-0-0-0|-2-2-2-2|--------|-5-5-5-5|-0-0-0-0|-2-2-2-2|

G|--------|--------|--------|--------|--------|--------|--------|--------|
D|--------|--------|--------|--------|--------|--------|--------|--------|
A|-4-4-4-4|--------|--------|--------|-4-4-4-4|--------|--------|--------|
E|--------|-5-5-5-5|-0-0-0-0|-2-2-2-2|--------|-5-5-5-5|-0-0-0-0|-2-2-2-2|

G|--------|--------|--------|--------|
D|--------|--------|--------|--------|
A|--------|--------|--------|--------|
E|-4-4-4-4|-4-4-4-4|-4-4-4-4|-4-4-4-4|

G|--------|--------|--------|--------|--------|--------|--------|--------|
D|--------|--------|--------|--------|--------|--------|--------|--------|
A|-4-4-4-4|--------|--------|--------|-4-4-4-4|--------|--------|--------|
E|--------|-5-5-5-5|-0-0-0-0|-2-2-2-2|--------|-5-5-5-5|-0-0-0-0|-2-2-2-2|

G|--------|--------|--------|--------|--------|--------|--------|--------|
D|--------|--------|--------|--------|--------|--------|--------|--------|
A|-4-4-4-4|--------|--------|--------|-4-4-4-4|--------|--------|--------|
E|--------|-5-5-5-5|-0-0-0-0|-2-2-2-2|--------|-5-5-5-5|-0-0-0-0|-2-2-2-2|

 Outro
G|--------|--------|--------|--------|
D|--------|--------|--------|--------|
A|--------|--------|--------|-4-R----|
E|-4-4-4-4|-4-4-4-4|-4-4-4-4|--------|


| /  slide up
| x  Mute note
| R  Let Ring
===============================================================================

I Hope this will help somebody. Playing this tab felt correct. But I could be tone deaf 
well ;-)  Have fun!
            
Submit corrections

comments powered by Disqus
↑ Back to top | Bad Religion Bass for 21st Century (Digital Boy). Lyrics for acoustic guitar and electric guitar. Tablatures and chords are parodies/interpretations of the original songs. You may use it for private study, scholarship, research or language learning purposes only