>
 >
1000 Memories 1

1000 Memories 1 Guitar Tabs

Bad Religion - 1000 Memories 1 chords, tabs, tablatures, lyrics

Guitar lessons | Add/correct | Request | Top 50 tabs Artists:  A B C D E F G H I J K L M N O P Q R S T U V W X Y Z 0-9

1000 Memories 1 Guitar Tabs – Bad Religion

CD, Sheet music, Poster

Do you like 1000 Memories 1? Share with your friends now
TabsTabs v2
INTRO CHORDS
e|--------------------|
B|--------------------|
G|--10---8------------|
D|--10---8------------|
A|--8----6------------|
E|--------------------|
INTRO FILL
e|-----------------------------------------|
B|-----------------------------------------|
G|-----5--------5------------5-------------|
D|-----------------------------------3-----|
A|--3-----5h6-------------3-----3--6-------|
E|-----------------6-----------------------|

PART UNDER INTRO FILL
 
e|-----------------------|
B|-----------------------|
G|-----------------------|
D|--55555555----------3--|
A|--33333333-66666666-1--|
E|-----------44444444----|

E|--------------------------|
B|--------------------------|
G|--------------------------|
D|--5--5--5--5--------------|  x2
A|--3--3--3--3--3--3--3--3--|
E|--------------1--1--1--1--|

  CHORUS
  
E|---------------------|    |--------------------------------------------------|
B|---------------------|    |--------------------------------------------------|
G|---------------------|    |--------------------------------------------------|
D|-------8888----------|    |------6666------8888-----------6666------88888888-|
A|--6666-6666-88888888-| x2 |-4444-4444-6666-6666-9999-4444-4444-6666-66666666-|
E|--4444------66666666-|    |-2222------4444------7777-2222------4444----------|

  BRIDGE

E|------------------------|    |-------------------------------------------|
B|------------------------|    |-------------------------------------------|
G|------------------------|    |-------------------------------------------|
D|----------6--------8----| x4 |-666----888----666-------------------------|
A|-8---88-6-4---6-66-6-8--|    |-444-66-666-88-444-66--8/10\\8/10\\8/10\\8-|
E|-6---66-4-----4-44---6--|    |-----44-----66-----44--6/8-\\6/8-\\6/8-\\6-|

  BRIDGE (cont)

e|-------------------------------------------------------------------------|
B|-------------------------------------------------------------------------|
G|-------------------------------------------------------------------------|
D|-666-----888-----666-----888888-------------66666666----------88888888---|
A|-444-66--666-88--444-66--666666-8--44444444-44444444-66666666-66666666-8-|
E|-----44------66------44---------6--22222222----------44444444----------6-|





Comments


Popular Bad Religion tabs & chords
Individuals Bass Tabs
Infected 2 Bass Tabs
Too Much To Ask 1 Bass Tabs
Induvidual Chords
Only Rain Chords
Prove It Chords
Before You Die Tabs
Only Gonna Die Tabs
The Same Person Tabs
Adams Atoms Ukulele


Song lyrics



↑ Back to top | Tablatures and chords are parodies/interpretations of the original songs. You may use it for private study, scholarship, research or language learning purposes only
© 2014 AZChords.com Contact us | Privacy policy | DMCA | Add/correct tabs | Request tabs | Top 50 tabs