» » »

Badly Drawn Boy, Using Our Feet Bass tabs (ver.1)

Artists:  A B C D E F G H I J K L M N O P Q R S T U V W X Y Z # 

Using Our Feet Bass tabs (ver.1)

Badly Drawn Boy Tabs
 Rating:
4/5 (4 votes)
Using Our Feet lessons Tabs too difficult? Try these video lessons and learn fast
1
                -------------------------------------------------------------------------------
-------------------------------------------------------------------------------

[Upbeat]:

  Q  E E E E S S E
|------------1-----|
|------1-1-3---3-1-|
|------------------|
|------------------|

[Riff 1]:

    Q  E E E E E E   Q  E E E E E E   Q  E E E E E E   Q  E E E E S S E
||-----------------|----------------|----------------|-1----------1-------||
||o----------------|-1------------1-|-3--------1---3-|------1-1-3---3-1--o||
||o-3--------1---3-|------1---3-----|------3---------|-------------------o||
||-------3---------|----------------|----------------|--------------------||

[Riff 2]:

    E. S E Q  E E E   +E  E E E E E E E
||------------------|--------------------||
||o-----------------|-------------------o||
||o-6--6-6-4--------|-----------------4-o||
||------------6-5-4-|-(4)-4-4-4-5-5-6----||


The song starts with one tact of paus and then an upbeat, and then goes straight in to 
1]. After that it's just to follow the music and listen when [Riff 2] comes.
            
Submit corrections

comments powered by Disqus
↑ Back to top | Badly Drawn Boy Bass for Using Our Feet. Lyrics for acoustic guitar and electric guitar. 1 Tablatures and chords are parodies/interpretations of the original songs. You may use it for private study, scholarship, research or language learning purposes only