» » »

Badly Drawn Boy, River, Sea, Ocean Tabs (ver.1)

Artists:  A B C D E F G H I J K L M N O P Q R S T U V W X Y Z # 

River, Sea, Ocean Tabs (ver.1)

Badly Drawn Boy Tabs
 Rating:
4/5 (4 votes)
River, Sea, Ocean lessons Tabs too difficult? Try these video lessons and learn fast
1
                Band: Badly Drawn Boy
Tuning: Standard
Tabbing by: Sean Konagaya


        
==INTRO==
(0:05) Us, you and me ...
Guitar 1
E|-----2--2---2-----5--5---5-----7--7---7------10--10---10-----|
B|-----2--2---2-----5--5---5-----7--7---7------10--10---10-----|
G|-----2--2---2-----5--5---5-----7--7---7------10--10---10-----|
D|---4------------7------------9------------12-----------------|
A|----------0------------0------------0---------------0--------|
E|-------------------------------------------------------------|
 |
E|------10--1010-10-------5--55-5-----7--7---7------3--3---3---|
B|------10--1010-10-------5--55-5-----7--7---7------3--3---3---|
G|------10--1010-10-------5--55-5-----7--7---7------3--3---3---|
D|---12-----------------7-----------9------9------5------5-----|
A|-------------------------------------------------------------|
E|-------------------------------------------------------------|



==VERSE==
(0:14) Quality sea ...
Guitar 1
E|-----2--2---2-----5--5---5-----7--7---7------10--10---10---|
B|-----2--2---2-----5--5---5-----7--7---7------10--10---10---|
G|-----2--2---2-----5--5---5-----7--7---7------10--10---10---|
D|---4------------7------------9------------12---------------|
A|----------0------------0------------0---------------0------|
E|-----------------------------------------------------------|
Guitar 2
E|---*------------5------------7------------10---------------|
B|---7------------5------------7------------10---------------|
G|---7--strum-----5--strum-----7--strum-----10—strum---------|
D|---7------------7------------9------------12---------------|
A|---5------------7------------9------------12---------------|
E|----------------5------------7------------10---------------|
*Avoid playing high e string, use D chord as alternative
 |
Guitar 1
E|------10--1010-10-------5--55-5-----7--77-7------3--33-3---|
B|------10--1010-10-------5--55-5-----7--77-7------3--33-3---|
G|------10--1010-10-------5--55-5-----7--77-7------3--33-3---|
D|---12-----------------7-----------9------------5-----------|
A|-----------------------------------------------------------|
E|-----------------------------------------------------------|
Guitar 2
E|---10-----------------5-----------7-------------3----------|
B|---10-----------------5-----------7-------------3----------|
G|---10--strum----------5--strum----7--strum------3—-strum---|
D|---12-----------------7-----------9-------------5----------|
A|---12-----------------7-----------9-------------3----------|
E|---10-----------------5-----------7-------------3----------|



==BRIDGE==
(0:22) Far away, Far away ...
Guitar 1
E|-----2--2---2-----2--2---2-----2--2---2-----2--2---2---|
B|-----2--2---2-----2--2---2-----2--2---2-----2--2---2---|
G|-----2--2---2-----2--2---2-----2--2---2-----2--2---2---|
D|---4------------4------------4------------4------------|
A|----------0------------0------------0------------0-----|
E|-------------------------------------------------------|
 |
E|-----2--2---2-----2--2---2-----2--2---2p0h2p0h2p0---|
B|-----2--2---2-----2--2---2-----2--2---2p0h2p0h2p0---|
G|-----2--2---2-----2--2---2-----2--2---2p0h2p0h2p0---|
D|---4------------4------------4----------------------|
A|----------0------------0------------0---------------|
E|----------------------------------------------------|



==CHORUS==
(0:31) ...
Guitar 1
E|-----2--2---2-----5--5---5-----7--7---7------10--10---10---|
B|-----2--2---2-----5--5---5-----7--7---7------10--10---10---|
G|-----2--2---2-----5--5---5-----7--7---7------10--10---10---|
D|---4------------7------------9------------12---------------|
A|----------0------------0------------0---------------0------|
E|-----------------------------------------------------------|
Guitar 2
E|---*------------5------------7------------10---------------|
B|---7------------5------------7------------10---------------|
G|---7--strum-----5--strum-----7--strum-----10—strum---------|
D|---7------------7------------9------------12---------------|
A|---5------------7------------9------------12---------------|
E|----------------5------------7------------10---------------|
*Avoid playing high e string, use D chord as alternative
Guitar 3
E|---7--8--10---10-------------10--8--6----------------------|
B|--------------------------------------10-6-----------------|
G|-----------------------------------------------------------|
D|-----------------------------------------------------------|
A|-----------------------------------------------------------|
E|-----------------------------------------------------------|
 |
Guitar 1
E|------10--1010-10-----5--55-5-----7--77-7-----3--33-3---|
B|------10--1010-10-----5--55-5-----7--77-7-----3--33-3---|
G|------10--1010-10-----5--55-5-----7--77-7-----3--33-3---|
D|---12---------------7-----------9-----------5-----------|
A|--------------------------------------------------------|
E|--------------------------------------------------------|
Guitar 2
E|---10---------------5-----------7-----------3-----------|
B|---10---------------5-----------7-----------3-----------|
G|---10--strum--------5--strum----7--strum----3—-strum----|
D|---12---------------7-----------9-----------5-----------|
A|---12---------------7-----------9-----------3-----------|
E|---10---------------5-----------7-----------3-----------|
Guitar 3
E|---10-8-6---8-------------------------------------------|
B|--------------------10-8-6---8--9-----8-----------------|
G|--------------------------------------------------------|
D|--------------------------------------------------------|
A|--------------------------------------------------------|
E|--------------------------------------------------------|


(0:40) Us, you, and me ...
Guitar 1
E|-----2--2---2-----5--5---5-----7--7---7------10--10---10---|
B|-----2--2---2-----5--5---5-----7--7---7------10--10---10---|
G|-----2--2---2-----5--5---5-----7--7---7------10--10---10---|
D|---4------------7------------9------------12---------------|
A|----------0------------0------------0---------------0------|
E|-----------------------------------------------------------|
Guitar 2
E|---*------------5------------7------------10---------------|
B|---7------------5------------7------------10---------------|
G|---7--strum-----5--strum-----7--strum-----10—strum---------|
D|---7------------7------------9------------12---------------|
A|---5------------7------------9------------12---------------|
E|----------------5------------7------------10---------------|
*Avoid playing high e string, use D chord as alternative
Guitar 3
E|---7--8--10---10-------------10--8--6----------------------|
B|--------------------------------------10-6-----------------|
G|-----------------------------------------------------------|
D|-----------------------------------------------------------|
A|-----------------------------------------------------------|
E|-----------------------------------------------------------|
 |
Guitar 1
E|------10--1010-10-----5--55-5-----7--77-7-----3--33-3---|
B|------10--1010-10-----5--55-5-----7--77-7-----3--33-3---|
G|------10--1010-10-----5--55-5-----7--77-7-----3--33-3---|
D|---12---------------7-----------9-----------5-----------|
A|--------------------------------------------------------|
E|--------------------------------------------------------|
Guitar 2
E|---10---------------5-----------7-----------3-----------|
B|---10---------------5-----------7-----------3-----------|
G|---10--strum--------5--strum----7--strum----3—-strum----|
D|---12---------------7-----------9-----------5-----------|
A|---12---------------7-----------9-----------3-----------|
E|---10---------------5-----------7-----------3-----------|
Guitar 3
E|---10-8-6---8-------------------------------------------|
B|--------------------10-8-6---8--9-----8-----------------|
G|--------------------------------------------------------|
D|--------------------------------------------------------|
A|--------------------------------------------------------|
E|--------------------------------------------------------|

(0:48) Quality Sea ...
Guitar 1
E|-----2--2---2-----5--5---5-----7--7---7------10--10---10---|
B|-----2--2---2-----5--5---5-----7--7---7------10--10---10---|
G|-----2--2---2-----5--5---5-----7--7---7------10--10---10---|
D|---4------------7------------9------------12---------------|
A|----------0------------0------------0---------------0------|
E|-----------------------------------------------------------|
Guitar 2
E|---*------------5------------7------------10---------------|
B|---7------------5------------7------------10---------------|
G|---7--strum-----5--strum-----7--strum-----10—strum---------|
D|---7------------7------------9------------12---------------|
A|---5------------7------------9------------12---------------|
E|----------------5------------7------------10---------------|
*Avoid playing high e string, use D chord as alternative
Guitar 3
E|---7--8--10---10-------------10--8--6----------------------|
B|--------------------------------------10-6-----------------|
G|-----------------------------------------------------------|
D|-----------------------------------------------------------|
A|-----------------------------------------------------------|
E|-----------------------------------------------------------|
 |
Guitar 1
E|------10--1010-10-----5--55-5-----7--77-7-----3--33-3---|
B|------10--1010-10-----5--55-5-----7--77-7-----3--33-3---|
G|------10--1010-10-----5--55-5-----7--77-7-----3--33-3---|
D|---12---------------7-----------9-----------5-----------|
A|--------------------------------------------------------|
E|--------------------------------------------------------|
Guitar 2
E|---10---------------5-----------7-----------3-----------|
B|---10---------------5-----------7-----------3-----------|
G|---10--strum--------5--strum----7--strum----3—-strum----|
D|---12---------------7-----------9-----------5-----------|
A|---12---------------7-----------9-----------3-----------|
E|---10---------------5-----------7-----------3-----------|
Guitar 3
E|---10-8-6---8-------------------------------------------|
B|--------------------10-8-6---8--9-----8-----------------|
G|--------------------------------------------------------|
D|--------------------------------------------------------|
A|--------------------------------------------------------|
E|--------------------------------------------------------|



==BRIDGE==
(0:57) Far away, Far away ...
Guitar 1
E|-----2--2---2-----2--2---2-----2--2---2-----2--2---2---|
B|-----2--2---2-----2--2---2-----2--2---2-----2--2---2---|
G|-----2--2---2-----2--2---2-----2--2---2-----2--2---2---|
D|---4------------4------------4------------4------------|
A|----------0------------0------------0------------0-----|
E|-------------------------------------------------------|
Guitar 3
E|-------------------------------------------------------|
B|---7-------------------------7------7h8p7h8p7h8p7------|
G|-------------------------------------------------------|
D|-------------------------------------------------------|
A|-------------------------------------------------------|
E|-------------------------------------------------------|
 |
Guitar 1
E|-----2--2---2-----2--2---2-----2--2---2p0h2p0h2p0------|
B|-----2--2---2-----2--2---2-----2--2---2p0h2p0h2p0------|
G|-----2--2---2-----2--2---2-----2--2---2p0h2p0h2p0------|
D|---4------------4------------4-------------------------|
A|----------0------------0------------0------------------|
E|-------------------------------------------------------|
Guitar 3
E|-------------------------------------------------------|
B|---7h8p7h8p7h8p7---------------------------------------|
G|-----------------------------7h9p7h9p7h9h7-------------|
D|-------------------------------------------------------|
A|-------------------------------------------------------|
E|-------------------------------------------------------|



==VERSE[2]==
(1:06) We can’t survive ...
Guitar 1
E|-----2--2---2-----5--5---5-----7--7---7------10--10---10---|
B|-----2--2---2-----5--5---5-----7--7---7------10--10---10---|
G|-----2--2---2-----5--5---5-----7--7---7------10--10---10---|
D|---4------------7------------9------------12---------------|
A|----------0------------0------------0---------------0------|
E|-----------------------------------------------------------|
Guitar 2
E|---*------------5------------7------------10---------------|
B|---7------------5------------7------------10---------------|
G|---7--strum-----5--strum-----7--strum-----10—strum---------|
D|---7------------7------------9------------12---------------|
A|---5------------7------------9------------12---------------|
E|----------------5------------7------------10---------------|
*Avoid playing high e string, use D chord as alternative
 |
Guitar 1
E|------10--1010-10-------5--55-5-----7--77-7------3--33-3---|
B|------10--1010-10-------5--55-5-----7--77-7------3--33-3---|
G|------10--1010-10-------5--55-5-----7--77-7------3--33-3---|
D|---12-----------------7-----------9------------5-----------|
A|-----------------------------------------------------------|
E|-----------------------------------------------------------|
Guitar 2
E|---10-----------------5-----------7------------3-----------|
B|---10-----------------5-----------7------------3-----------|
G|---10--strum----------5--strum----7--strum-----3—-strum----|
D|---12-----------------7-----------9------------5-----------|
A|---12-----------------7-----------9------------3-----------|
E|---10-----------------5-----------7------------3-----------|
 |
Guitar 1
E|-----2--2---2-----2--2---2-----2--2---2p0h2p0h2p0----------|
B|-----2--2---2-----2--2---2-----2--2---2p0h2p0h2p0----------|
G|-----2--2---2-----2--2---2-----2--2---2p0h2p0h2p0----------|
D|---4------------4------------4-----------------------------|
A|----------0------------0------------0----------------------|
E|-----------------------------------------------------------|


==CHORUS==
(1:19) Us, you, and me ...
Guitar 1
E|-----2--2---2-----5--5---5-----7--7---7------10--10---10---|
B|-----2--2---2-----5--5---5-----7--7---7------10--10---10---|
G|-----2--2---2-----5--5---5-----7--7---7------10--10---10---|
D|---4------------7------------9------------12---------------|
A|----------0------------0------------0---------------0------|
E|-----------------------------------------------------------|
Guitar 2
E|---*------------5------------7------------10---------------|
B|---7------------5------------7------------10---------------|
G|---7--strum-----5--strum-----7--strum-----10—strum---------|
D|---7------------7------------9------------12---------------|
A|---5------------7------------9------------12---------------|
E|----------------5------------7------------10---------------|
*Avoid playing high e string, use D chord as alternative
Guitar 3
E|---7--8--10---10-------------10--8--6----------------------|
B|--------------------------------------10-6-----------------|
G|-----------------------------------------------------------|
D|-----------------------------------------------------------|
A|-----------------------------------------------------------|
E|-----------------------------------------------------------|
 |
Guitar 1
E|------10--1010-10-----5--55-5-----7--77-7-----3--33-3---|
B|------10--1010-10-----5--55-5-----7--77-7-----3--33-3---|
G|------10--1010-10-----5--55-5-----7--77-7-----3--33-3---|
D|---12---------------7-----------9-----------5-----------|
A|--------------------------------------------------------|
E|--------------------------------------------------------|
Guitar 2
E|---10---------------5-----------7-----------3-----------|
B|---10---------------5-----------7-----------3-----------|
G|---10--strum--------5--strum----7--strum----3—-strum----|
D|---12---------------7-----------9-----------5-----------|
A|---12---------------7-----------9-----------3-----------|
E|---10---------------5-----------7-----------3-----------|
Guitar 3
E|---10-8-6---8-------------------------------------------|
B|--------------------10-8-6---8--9-----8-----------------|
G|--------------------------------------------------------|
D|--------------------------------------------------------|
A|--------------------------------------------------------|
E|--------------------------------------------------------|

(1:28) Us, you, and me ...
Guitar 1
E|-----2--2---2-----5--5---5-----7--7---7------10--10---10---|
B|-----2--2---2-----5--5---5-----7--7---7------10--10---10---|
G|-----2--2---2-----5--5---5-----7--7---7------10--10---10---|
D|---4------------7------------9------------12---------------|
A|----------0------------0------------0---------------0------|
E|-----------------------------------------------------------|
Guitar 2
E|---*------------5------------7------------10---------------|
B|---7------------5------------7------------10---------------|
G|---7--strum-----5--strum-----7--strum-----10—strum---------|
D|---7------------7------------9------------12---------------|
A|---5------------7------------9------------12---------------|
E|----------------5------------7------------10---------------|
*Avoid playing high e string, use D chord as alternative
Guitar 3
E|---7--8--10---10-------------10--8--6----------------------|
B|--------------------------------------10-6-----------------|
G|-----------------------------------------------------------|
D|-----------------------------------------------------------|
A|-----------------------------------------------------------|
E|-----------------------------------------------------------|
 |
Guitar 1
E|------10--1010-10-----5--55-5-----7--77-7-----3--33-3---|
B|------10--1010-10-----5--55-5-----7--77-7-----3--33-3---|
G|------10--1010-10-----5--55-5-----7--77-7-----3--33-3---|
D|---12---------------7-----------9-----------5-----------|
A|--------------------------------------------------------|
E|--------------------------------------------------------|
Guitar 2
E|---10---------------5-----------7-----------3-----------|
B|---10---------------5-----------7-----------3-----------|
G|---10--strum--------5--strum----7--strum----3—-strum----|
D|---12---------------7-----------9-----------5-----------|
A|---12---------------7-----------9-----------3-----------|
E|---10---------------5-----------7-----------3-----------|
Guitar 3
E|---10-8-6---8-------------------------------------------|
B|--------------------10-8-6---8--9-----8-----------------|
G|--------------------------------------------------------|
D|--------------------------------------------------------|
A|--------------------------------------------------------|
E|--------------------------------------------------------|

(1:37) Us, you, and me ...
Guitar 1
E|-----2--2---2-----5--5---5-----7--7---7------10--10---10---|
B|-----2--2---2-----5--5---5-----7--7---7------10--10---10---|
G|-----2--2---2-----5--5---5-----7--7---7------10--10---10---|
D|---4------------7------------9------------12---------------|
A|----------0------------0------------0---------------0------|
E|-----------------------------------------------------------|
Guitar 2
E|---*------------5------------7------------10---------------|
B|---7------------5------------7------------10---------------|
G|---7--strum-----5--strum-----7--strum-----10—strum---------|
D|---7------------7------------9------------12---------------|
A|---5------------7------------9------------12---------------|
E|----------------5------------7------------10---------------|
*Avoid playing high e string, use D chord as alternative
Guitar 3
E|---7--8--10---10-------------10--8--6----------------------|
B|--------------------------------------10-6-----------------|
G|-----------------------------------------------------------|
D|-----------------------------------------------------------|
A|-----------------------------------------------------------|
E|-----------------------------------------------------------|
 |
Guitar 1
E|------10--1010-10-----5--55-5-----7--77-7-----3--33-3---|
B|------10--1010-10-----5--55-5-----7--77-7-----3--33-3---|
G|------10--1010-10-----5--55-5-----7--77-7-----3--33-3---|
D|---12---------------7-----------9-----------5-----------|
A|--------------------------------------------------------|
E|--------------------------------------------------------|
Guitar 2
E|---10---------------5-----------7-----------3-----------|
B|---10---------------5-----------7-----------3-----------|
G|---10--strum--------5--strum----7--strum----3—-strum----|
D|---12---------------7-----------9-----------5-----------|
A|---12---------------7-----------9-----------3-----------|
E|---10---------------5-----------7-----------3-----------|
Guitar 3
E|---10-8-6---8-------------------------------------------|
B|--------------------10-8-6---8--9-----8-----------------|
G|--------------------------------------------------------|
D|--------------------------------------------------------|
A|--------------------------------------------------------|
E|--------------------------------------------------------|

(1:45) Us, you, and me ...
Guitar 1
E|-----2--2---2-----5--5---5-----7--7---7------10--10---10---|
B|-----2--2---2-----5--5---5-----7--7---7------10--10---10---|
G|-----2--2---2-----5--5---5-----7--7---7------10--10---10---|
D|---4------------7------------9------------12---------------|
A|----------0------------0------------0---------------0------|
E|-----------------------------------------------------------|
Guitar 2
E|---*------------5------------7------------10---------------|
B|---7------------5------------7------------10---------------|
G|---7--strum-----5--strum-----7--strum-----10—strum---------|
D|---7------------7------------9------------12---------------|
A|---5------------7------------9------------12---------------|
E|----------------5------------7------------10---------------|
*Avoid playing high e string, use D chord as alternative
Guitar 3
E|---7--8--10---10-------------10--8--6----------------------|
B|--------------------------------------10-6-----------------|
G|-----------------------------------------------------------|
D|-----------------------------------------------------------|
A|-----------------------------------------------------------|
E|-----------------------------------------------------------|
 |
Guitar 1
E|------10--1010-10-----5--55-5-----7--77-7-----3--33-3---|
B|------10--1010-10-----5--55-5-----7--77-7-----3--33-3---|
G|------10--1010-10-----5--55-5-----7--77-7-----3--33-3---|
D|---12---------------7-----------9-----------5-----------|
A|--------------------------------------------------------|
E|--------------------------------------------------------|
Guitar 2
E|---10---------------5-----------7-----------3-----------|
B|---10---------------5-----------7-----------3-----------|
G|---10--strum--------5--strum----7--strum----3—-strum----|
D|---12---------------7-----------9-----------5-----------|
A|---12---------------7-----------9-----------3-----------|
E|---10---------------5-----------7-----------3-----------|
Guitar 3
E|---10-8-6---8-------------------------------------------|
B|--------------------10-8-6---8--9-----8-----------------|
G|--------------------------------------------------------|
D|--------------------------------------------------------|
A|--------------------------------------------------------|
E|--------------------------------------------------------|



==OUTRO==
(1:54) ...
Guitar 2
E|-----2--2---2-----2--2---2-----2--2---2-----2--2---2---|
B|-----2--2---2-----2--2---2-----2--2---2-----2--2---2---|
G|-----2--2---2-----2--2---2-----2--2---2-----2--2---2---|
D|---4------------4------------4------------4------------|
A|----------0------------0------------0------------0-----|
E|-------------------------------------------------------|
 |
E|-----2--2---2-----2--2---2-----2--2---2-----2--2---2---|
B|-----2--2---2-----2--2---2-----2--2---2-----2--2---2---|
G|-----2--2---2-----2--2---2-----2--2---2-----2--2---2---|
D|---4------------4------------4------------4------------|
A|----------0------------0------------0------------0-----|
E|-------------------------------------------------------|
 |
E|-----2--2---2-----2--2---2-----2--2---2-----2--2---2---|
B|-----2--2---2-----2--2---2-----2--2---2-----2--2---2---|
G|-----2--2---2-----2--2---2-----2--2---2-----2--2---2---|
D|---4------------4------------4------------4------------|
A|----------0------------0------------0------------0-----|
E|-------------------------------------------------------|
 |
E|-----2--2---2-----2--2---2-----2--2---2-----2--2---2---|
B|-----2--2---2-----2--2---2-----2--2---2-----2--2---2---|
G|-----2--2---2-----2--2---2-----2--2---2-----2--2---2---|
D|---4------------4------------4------------4------------|
A|----------0------------0------------0------------0-----|
E|-------------------------------------------------------|
 |
Guitar 2
E|-----2--2---2-----2--2---2-----2--2---2p0h2p0h2p0h2---|
B|-----2--2---2-----2--2---2-----2--2---2p0h2p0h2p0h2---|
G|-----2--2---2-----2--2---2-----2--2---2p0h2p0h2p0h2---|
D|---4------------4------------4------------------------|
A|----------0------------0------------0-----------------|
E|------------------------------------------------------|
Guitar 1
E|--------------------------------------------10--------|
B|--------------------------------------7--7------------|
G|------------------------------------------------7-----|
D|------------------------------------------------------|
A|------------------------------------------------------|
E|------------------------------------------------------|
NOTES: Keyboard, bells, all percussion are omitted.
            
Submit corrections

comments powered by Disqus
↑ Back to top | Badly Drawn Boy Tabs for River, Sea, Ocean. Lyrics for acoustic guitar and electric guitar. 1 Tablatures and chords are parodies/interpretations of the original songs. You may use it for private study, scholarship, research or language learning purposes only