» » »

Badly Drawn Boy, River, Sea, Ocean Bass tabs (ver.1)

Artists:  A B C D E F G H I J K L M N O P Q R S T U V W X Y Z # 

River, Sea, Ocean Bass tabs (ver.1)

Badly Drawn Boy Tabs
Rating:
0/5 (0 votes)
Hard to play? Try these video lessons and learn fast.
                Band: Badly Drawn Boy
Tuning: Drop D
Tabbing by: Sean Konagaya



==VERSE==
(1:10) Our love is alive ...
G|--------------------------------------------------------------------------|
D|--------------------------------------------------------------------------|
A|---53---1-0------------7--77-7--7---5-------5-------5-------5-35----------|
E|------------5-3-5-5-6------------0-0----00-0----00-0----00-0-----00-0-----|



==CHORUS==
(1:19) Us, you, and me ...
G|--------------------------------------------------------------------------|
D|--------------------------------------------------------------------------|
A|---5--50-05-50-0------7-87-3---1--11-1---------------01-1-----------------|
E|----------------0-00-0----------------3--33-32--2-35-----3-20-------------|
 |
G|--------------------------------------------------------------------------|
D|--------------------------------------------------------------------------|
A|----------53-5--53-----0--7-87-3---1--11-1-------------------01-0---------|
E|---0--00-0--------0--0--0-----------------3--33-32--22-23-25--------------|
 |
G|--------------------------------------------------------------------------|
D|--------------------------------------------------------------------------|
A|----------53-5--53-----0--7-87-3---1--1-35-3-----------------0------------|
E|---0--00-0--------0--0--0-------------------3--55-3--2--2-2---53--2-------|
 |
G|--------------------------------------------------------------------------|
D|--------------------------------------------------------------------------|
A|------35-3-5-55--35-3---55-3--7-87-3---1--11-1------------------------5---|
E|---0-----------------0------------------------3--3-3-32--22-22--3--5------|



==OUTRO==
(1:54) ...
G|--------------------------------------------------------------------------|
D|--------------------------------------------------------------------------|
A|---05----05----05----05----05----05----05----05----05----05----05---------|
E|--------------------------------------------------------------------------|
 |
G|--------------------------------------------------------------------------|
D|--------------------------------------------------------------------------|
A|---05----05----05----05----05----05----05--------------0----5-------------|
E|---------------------------------------------4----5-----------------------|
NOTES: Spacings are not fit to scale. 
            

comments powered by Disqus
↑ Back to top | Badly Drawn Boy Bass for River, Sea, Ocean. Lyrics for acoustic guitar and electric guitar. Tablatures and chords are parodies/interpretations of the original songs. You may use it for private study, scholarship, research or language learning purposes only