» » »

I Was Wrong Tabs (ver.1)

Artists:  A B C D E F G H I J K L M N O P Q R S T U V W X Y Z # 

I Was Wrong Tabs (ver.1)

Badly Drawn Boy
Rating:
0/5 (0 votes)

Hard to play? Try these video lessons and learn fast.
                Badly Drawn Boy - I Was Wrong
Standard tuning



Bm            Bm/A          Bm/G          Bm/F#
|-------------|-------------|-------------|-------------|
|-3-----3-----|-3-----3-----|-3-----3-----|-3-----3-----|
|---4-----4---|---4-----4---|---4-----4---|---4-----4---|
|-----4-----4-|-----4-----4-|-----4-----4-|-----4-----4-|
|-2-----------|-0-----------|-------------|-------------|
|-------------|-------------|-3-----------|-2-----------|



Bm/E          Bm/F#         Bm/G          A
|-------------|-------------|-------------|-------------|
|-3-----3-----|-3-----3-----|-3-----3-----|-2--7--5-3-2-|
|---4-----4---|---4-----4---|---4-----4---|-2--7--6-4-2-|
|-----4-----4-|-----4-----4-|-----4-----4-|-2-----------|
|-------------|-------------|-------------|-------------|
|-0-----------|-2-----------|-3-----------|-------------|


I always thought id build my world around you, 
and its a miracle i ever found you.
Do the colours of the rainbow radiate to everyone.

Now i dont know how i could live without you,
but certainly i know im not about to.
I dont believe in anything i see unless i can feel it too.




This is only the first part if anyone can send me the rest id be 
well chuffed. Mickey C
            
Hard to play? Try these video lessons and learn fast. | Correct




comments powered by Disqus
↑ Back to top | Tablatures and chords are parodies/interpretations of the original songs. You may use it for private study, scholarship, research or language learning purposes only