>
 >
I Love N.Y.E

I Love N.Y.E Guitar Tabs

Badly Drawn Boy - I Love N.Y.E chords, tabs, tablatures, lyrics

Guitar lessons | Add/correct | Request | Top 50 tabs Artists:  A B C D E F G H I J K L M N O P Q R S T U V W X Y Z 0-9

I Love N.Y.E Guitar Tabs – Badly Drawn Boy

CD, Sheet music, Poster

Do you like I Love N.Y.E? Share with your friends now
ChordsTabs
-------------------------------------------------------------------------------
-------------------------------------------------------------------------------

Tuning: e,b,g,d,a,e
Time signature: 6/8

I took some liberty with what I could hear, all those pretty bells and strings ;)


Intro (Flute Gtr) Free time

e|0-h1-p0--------------------------------------------------------------------|
B|---------1---3-------------------------------------------------------------|
G|-----------------2p0h2------------0---2---2p0------------------------------|
D|----------------------------2h3----------------3---2-----0-----------------|
A|---------------------------------------------------------------------------|
E|---------------------------------------------------------------------------|

End Intro

++++++++++++++++++++++++++++++++++++++++++++++++++++++++++++++++++++++++++++++

  Gtr. 1

e|--0--0--0--0--0--0--0--0--0--0--0--0-|0h1--1--1--1--1--1--1--1--1--1--1--1-|
B|1--------1--------1--------1---------|1--------1--------1--------1---------|
G|---0--2-----0--2-----0--2-----0--2---|---0--2-----0--2-----0--2-----0--2---|
D|-------------------------------------|-------------------------------------|
A|-------------------------------------|-------------------------------------|
E|-------------------------------------|-------------------------------------|
 |
 |Gtr. 2
 |
e|-------------------------------------|-------------------------------------|
B|-------------------------------------|-------------------------------------|
G|-------------------------------------|-------------------------------------|
D|-------------------------------------|-------------------------------------|
A|-------------------------------------|-------------------------------------|
E|-------------------------------------|-------------------------------------|
 |
 |Gtr. 3
 |
e|-------------------------------------|-------------------------------------|
B|-------------------------------------|-------------------------------------|
G|-------------------------------------|-------------------------------------|
D|-------------------------------------|-------------------------------------|
A|-------------------------------------|-------------------------------------|
E|-------------------------------------|-------------------------------------|

++++++++++++++++++++++++++++++++++++++++++++++++++++++++++++++++++++++++++++++

  Gtr. 1

e|--0--0--0--0--0--0--0--0--0--0--0--0-|0h1--1--1--1--1--1--1--1--1--1--1--1-|
B|1--------1--------1--------1---------|1--------1--------1--------1---------|
G|---0--2-----0--2-----0--2-----0--2---|---0--2-----0--2-----0--2-----0--2---|
D|-------------------------------------|-------------------------------------|
A|-------------------------------------|-------------------------------------|
E|-------------------------------------|-------------------------------------|
 |
 |Gtr. 2
 |
e|-------------------------------------|-------------------------------------|
B|-------------------------------------|-------------------------------------|
G|-------------------------------------|-------------------------------------|
D|-------------------------------------|-------------------------------------|
A|-------------------------------------|-------------------------------------|
E|-------------------------------------|-------------------------------------|
 |
 |Gtr. 3
 |
e|-------------------------------------|-------------------------------------|
B|-------------------------------------|-------------------------------------|
G|-------------------------------------|-------------------------------------|
D|-------------------------------------|-------------------------------------|
A|-------------------------------------|-------------------------------------|
E|-------------------------------------|-------------------------------------|

++++++++++++++++++++++++++++++++++++++++++++++++++++++++++++++++++++++++++++++

  Gtr. 1

e|--0--0--0--0--0--0--0--0--0--0--0--0-|0h1--1--1--1--1--1--1--1--1--1--1--1-|
B|1--------1--------1--------1---------|1--------1--------1--------1---------|
G|---0--2-----0--2-----0--2-----0--2---|---0--2-----0--2-----0--2-----0--2---|
D|-------------------------------------|-------------------------------------|
A|-------------------------------------|-------------------------------------|
E|-------------------------------------|-------------------------------------|
 |
 |Gtr. 2
 |
e|-------------------------------------|-------------------------------------|
B|-------------------------------------|-------------------------------------|
G|-------------------------------------|-------------------------------------|
D|------0--2-----0--------0--2-----0---|-------------------------------------|
A|3-----------------3------------------|------0--3-----0--------0--3-----0---|
E|-------------------------------------|1-----------------1------------------|
 |
 |Gtr. 3
 |
e|-------------------------------------|-------------------------------------|
B|-------------------------------------|-------------------------------------|
G|-------------------------------------|-------------------------------------|
D|-------------------------------------|-------------------------------------|
A|-------------------------------------|-------------------------------------|
E|-------------------------------------|-------------------------------------|

++++++++++++++++++++++++++++++++++++++++++++++++++++++++++++++++++++++++++++++

  Gtr. 1

e|--0--0--0--0--0--0--0--0--0--0--0--0-|0h1--1--1--1--1--1--1--1--1--1--1--1-|
B|1--------1--------1--------1---------|1--------1--------1--------1---------|
G|---0--2-----0--2-----0--2-----0--2---|---0--2-----0--2-----0--2-----0--2---|
D|-------------------------------------|-------------------------------------|
A|-------------------------------------|-------------------------------------|
E|-------------------------------------|-------------------------------------|
 |
 |Gtr. 2
 |
e|-------------------------------------|-------------------------------------|
B|-------------------------------------|-------------------------------------|
G|-------------------------------------|-------------------------------------|
D|------0--2-----0--------0--2-----0---|-------------------------------------|
A|3-----------------3------------------|------0--3-----0--------0--3-----0---|
E|-------------------------------------|1-----------------1------------------|
 |
 |Gtr. 3
 |
e|-------------------------------------|-------------------------------------|
B|---------------------------1---------|-------------------------------------|
G|---------0-----2--0--------------2---|0--------------------------------0-h2|
D|2-----3-----------------3------------|-------------------------------------|
A|-------------------------------------|-------------------------------------|
E|-------------------------------------|-------------------------------------|

++++++++++++++++++++++++++++++++++++++++++++++++++++++++++++++++++++++++++++++

  Gtr. 1

e|0-------0----------------------------|0-------0----------------------------|
B|1-------1-----------------0--------1-|1-------1-----------------0--------1-|
G|-----2-----2----------0---------2----|-----2-----2----------0---------2----|
D|--2-----------2---2---------3--------|--2-----------2---2---------3--------|
A|-------------------------------------|-------------------------------------|
E|-------------------------------------|-------------------------------------|
 |
 |Gtr. 2
 |
e|-------------------------------------|-------------------------------------|
B|-------------------------------------|-------------------------------------|
G|-------------------------------------|-------------------------------------|
D|---2--------0--2---------------------|---2--------0--2---------------------|
A|0-----0--3---------------2-------3---|0-----0--3---------------2-------3---|
E|------------------0---------1--------|------------------0---------1--------|
 |
 |Gtr. 3
 |
e|-------------------------------------|-------------------------------------|
B|-------------------------------------|-------------------------------------|
G|(2)---------------0----------------0h|2------------------------------------|
D|---------------------3--2--3-----3---|-------------------------------------|
A|-------------------------------------|-------------------------------------|
E|-------------------------------------|-------------------------------------|

++++++++++++++++++++++++++++++++++++++++++++++++++++++++++++++++++++++++++++++

  Gtr. 1

e|--0--0--0--0--0--0--0--0--0--0--0--0-|0h1--1--1--1--1--1--1--1--1--1--1--1-|
B|1--------1--------1--------1---------|1--------1--------1--------1---------|
G|---0--2-----0--2-----0--2-----0--2---|---0--2-----0--2-----0--2-----0--2---|
D|-------------------------------------|-------------------------------------|
A|-------------------------------------|-------------------------------------|
E|-------------------------------------|-------------------------------------|
 |
 |Gtr. 2
 |
e|-------------------------------------|-------------------------------------|
B|-------------------------------------|-------------------------------------|
G|-------------------------------------|-------------------------------------|
D|------0--2-----0--------0--2-----0---|-------------------------------------|
A|3-----------------3------------------|------0--3-----0--------0--3-----0---|
E|-------------------------------------|1-----------------1------------------|
 |
 |Gtr. 3
 |
e|-------------------------------------|0------------------------------------|
B|-------------------------------------|---3--1-----------1------------------|
G|-------------------------------------|---------------2--------2--0---------|
D|-------------------------------------|---------------------------------3---|
A|-------------------------------------|-------------------------------------|
E|-------------------------------------|-------------------------------------|

++++++++++++++++++++++++++++++++++++++++++++++++++++++++++++++++++++++++++++++

  Gtr. 1

e|--0--0--0--0--0--0--0--0--0--0--0--0-|0h1--1--1--1--1--1--1--1--1--1--1--1-|
B|1--------1--------1--------1---------|1--------1--------1--------1---------|
G|---0--2-----0--2-----0--2-----0--2---|---0--2-----0--2-----0--2-----0--2---|
D|-------------------------------------|-------------------------------------|
A|-------------------------------------|-------------------------------------|
E|-------------------------------------|-------------------------------------|
 |
 |Gtr. 2
 |
e|-------------------------------------|-------------------------------------|
B|-------------------------------------|-------------------------------------|
G|-------------------------------------|-------------------------------------|
D|------0--2-----0--------0--2-----0---|-------------------------------------|
A|3-----------------3------------------|------0--3-----0--------0--3-----0---|
E|-------------------------------------|1-----------------1------------------|
 |
 |Gtr. 3
 |
e|-------------------------------------|0------------------------------------|
B|---1--------------1------------------|---3--1-----------1------------------|
G|----------------------0--------------|---------------2--------2--0---------|
D|2------------------------------------|---------------------------------3---|
A|-------------------------------------|-------------------------------------|
E|-------------------------------------|-------------------------------------|

++++++++++++++++++++++++++++++++++++++++++++++++++++++++++++++++++++++++++++++

  Gtr. 1

e|--0--0--0--0--0--0--0--0--0--0--0--0-|0h1--1--1--1--1--1--1--1--1--1--1--1-|
B|1--------1--------1--------1---------|1--------1--------1--------1---------|
G|---0--2-----0--2-----0--2-----0--2---|---0--2-----0--2-----0--2-----0--2---|
D|-------------------------------------|-------------------------------------|
A|-------------------------------------|-------------------------------------|
E|-------------------------------------|-------------------------------------|
 |
 |Gtr. 2
 |
e|-------------------------------------|-------------------------------------|
B|-------------------------------------|-------------------------------------|
G|-------------------------------------|-------------------------------------|
D|------0--2-----0--------0--2-----0---|-------------------------------------|
A|3-----------------3------------------|------0--3-----0--------0--3-----0---|
E|-------------------------------------|1-----------------1------------------|
 |
 |Gtr. 3
 |
e|-------------------------------------|-------------------------------------|
B|---------------------------1---------|-------------------------------------|
G|---------0-----2--0--------------2---|0--------------------------------0-h2|
D|2-----3-----------------3------------|-------------------------------------|
A|-------------------------------------|-------------------------------------|
E|-------------------------------------|-------------------------------------|


++++++++++++++++++++++++++++++++++++++++++++++++++++++++++++++++++++++++++++++

  Gtr. 1

e|0-------0----------------------------|0-----0--0-----0--0-----0--0-----0---|
B|1-------1-----------------0--------1-|1-----1--1-----1--1-----1--1-----1---|
G|-----2-----2----------0---------2----|-------------------------------------|
D|--2-----------2---2---------3--------|-------------------------------------|
A|-------------------------------------|-------------------------------------|
E|-------------------------------------|-------------------------------------|
 |
 |Gtr. 2
 |
e|-------------------------------------|-------------------------------------|
B|-------------------------------------|-------------------------------------|
G|-------------------------------------|-------------------------------------|
D|---2--------0--2---------------------|------0--2-----0--------0--2-----0---|
A|0-----0--3---------------2-------3---|3-----------------3------------------|
E|------------------0---------1--------|-------------------------------------|
 |
 |Gtr. 3
 |
e|-------------------------------------|-------------------------------------|
B|-------------------------------------|-------------------------------------|
G|(2)---------------0------------------|-------------------------------------|
D|---------------------3--2--3---------|-------------------------------------|
A|---------------------------------3---|3------------------------------------|
E|-------------------------------------|-------------------------------------|

++++++++++++++++++++++++++++++++++++++++++++++++++++++++++++++++++++++++++++++

  Gtr. 1

e|1----1--1------1--1-----1--1-----1---|0-----0--0-----0--0-----0--0-----0---|
B|1----1--1------1--1-----1--1-----1---|1-----1--1-----1--1-----1--1-----1---|
G|---------------------------------------------------------------------------|
D|---------------------------------------------------------------------------|
A|---------------------------------------------------------------------------|
E|---------------------------------------------------------------------------|
 |
 |Gtr. 2
 |
e|-------------------------------------|-------------------------------------|
B|-------------------------------------|-------------------------------------|
G|-------------------------------------|-------------------------------------|
D|-------------------------------------|------0--2-----0--------0--2-----0---|
A|------0--3-----0--------0--3-----0---|3-----------------3------------------|
E|1-----------------1------------------|-------------------------------------|
 |
 |Gtr. 3
 |
e|0------------------------------------|-------------------------------------|
B|---3--1------------------------------|-------------------------------------|
G|-------------------------------------|-------------------------------------|
D|-------------------------------------|-------------------------------------|
A|-------------------------------------|-------------------------------------|
E|-------------------------------------|-------------------------------------|

++++++++++++++++++++++++++++++++++++++++++++++++++++++++++++++++++++++++++++++

  Gtr. 1

e|1----1--1------1--1-----1--1-----1---|0-----0--0-----0--0-----1--1-----1---|
B|1----1--1------1--1-----1--1-----1---|1-----1--1-----0--0-----1--1-----1---|
G|-------------------------------------|-------------------------------------|
D|-------------------------------------|-------------------------------------|
A|-------------------------------------|-------------------------------------|
E|-------------------------------------|-------------------------------------|
 |
 |Gtr. 2
 |
e|-------------------------------------|-------------------------------------|
B|-------------------------------------|-------------------------------------|
G|-------------------------------------|-------------------------------------|
D|-------------------------------------|---2--------0--2---------------------|
A|------0--3-----0--------0--3-----0---|0-----0--3---------------2-------3---|
E|1-----------------1------------------|------------------0---------1--------|
 |
 |Gtr. 3
 |
e|-------------------------------------|-------------------------------------|
B|-------------------------------------|-------------------------------------|
G|-------------------------------------|-------------------------------------|
D|-------------------------------------|-------------------------------------|
A|-------------------------------------|-------------------------------------|
E|-------------------------------------|-------------------------------------|

++++++++++++++++++++++++++++++++++++++++++++++++++++++++++++++++++++++++++++++

  Gtr. 1

e|--0--0--0--0--0--0--0--0--0--0--0--0-|--0--0--0--0--0--0--0--0--0--0--0--0-|
B|1--------1--------1--------1---------|1--------1--------1--------1---------|
G|---0--2-----0--2-----0--2-----0--2---|---0--2-----0--2-----0--2-----0--2---|
D|-------------------------------------|-------------------------------------|
A|-------------------------------------|-------------------------------------|
E|-------------------------------------|-------------------------------------|
 |
 |Gtr. 2
 |
e|-------------------------------------|-------------------------------------|
B|-------------------------------------|-------------------------------------|
G|-------------------------------------|-------------------------------------|
D|------0--2-----0--------0--2-----0---|------0--2-----0--------0--2-----0---|
A|3-----------------3------------------|3-----------------3------------------|
E|-------------------------------------|-------------------------------------|
 |
 |Gtr. 3
 |
e|-------------------------------------|-------------------------------------|
B|-------------------------------------|-------------------------------------|
G|-------------------------------------|-------------------------------------|
D|-------------------------------------|-------------------------------------|
A|-------------------------------------|-------------------------------------|
E|-------------------------------------|-------------------------------------|

++++++++++++++++++++++++++++++++++++++++++++++++++++++++++++++++++++++++++++++

  Gtr. 1

e|--0--0--0--0--0--0-------------------|-------------------------------------|
B|1--------1--------1------------------|-------------------------------------|
G|---0--2-----0--2---------------------|-------------------------------------|
D|-------------------------------------|-------------------------------------|
A|-------------------------------------|-------------------------------------|
E|-------------------------------------|-------------------------------------|
 |
 |Gtr. 2
 |
e|-------------------------------------|-------------------------------------|
B|-------------------------------------|-------------------------------------|
G|-------------------------------------|-------------------------------------|
D|------0--2-----0---------------------|-------------------------------------|
A|3-----------------3------------------|-------------------------------------|
E|-------------------------------------|-------------------------------------|
 |
 |Gtr. 3
 |
e|-------------------------------------|-------------------------------------|
B|-------------------------------------|-------------------------------------|
G|-------------------------------------|-------------------------------------|
D|-------------------------------------|-------------------------------------|
A|-------------------------------------|-------------------------------------|
E|-------------------------------------|-------------------------------------|

++++++++++++++++++++++++++++++++++++++++++++++++++++++++++++++++++++++++++++++
PAUSE and get a bigger orchestra, they're cheap these days
++++++++++++++++++++++++++++++++++++++++++++++++++++++++++++++++++++++++++++++

  Gtr. 1

e|--0--0--0--0--0--0--0--0--0--0--0--0-|0h1--1--1--1--1--1--1--1--1--1--1--1-|
B|1--------1--------1--------1---------|1--------1--------1--------1---------|
G|---0--2-----0--2-----0--2-----0--2---|---0--2-----0--2-----0--2-----0--2---|
D|-------------------------------------|-------------------------------------|
A|-------------------------------------|-------------------------------------|
E|-------------------------------------|-------------------------------------|
 |
 |Gtr. 2
 |
e|-------------------------------------|-------------------------------------|
B|-------------------------------------|-------------------------------------|
G|-------------------------------------|-------------------------------------|
D|------0--2-----0--------0--2-----0---|-------------------------------------|
A|3-----------------3------------------|------0--3-----0--------0--3-----0---|
E|-------------------------------------|1-----------------1------------------|
 |
 |Gtr. 3
 |
e|-------------------------------------|0------------------------------------|
B|---1---------------------------------|---3--1------------------------------|
G|-------------------------------------|-------------------------------------|
D|-------------------------------------|-------------------------------------|
A|-------------------------------------|-------------------------------------|
E|-------------------------------------|-------------------------------------|

++++++++++++++++++++++++++++++++++++++++++++++++++++++++++++++++++++++++++++++

  Gtr. 1

e|--0--0--0--0--0--0--0--0--0--0--0--0-|0h1--1--1--1--1--1--1--1--1--1--1--1-|
B|1--------1--------1--------1---------|1--------1--------1--------1---------|
G|---0--2-----0--2-----0--2-----0--2---|---0--2-----0--2-----0--2-----0--2---|
D|-------------------------------------|-------------------------------------|
A|-------------------------------------|-------------------------------------|
E|-------------------------------------|-------------------------------------|
 |
 |Gtr. 2
 |
e|-------------------------------------|-------------------------------------|
B|-------------------------------------|-------------------------------------|
G|-------------------------------------|-------------------------------------|
D|------0--2-----0--------0--2-----0---|-------------------------------------|
A|3-----------------3------------------|------0--3-----0--------0--3-----0---|
E|-------------------------------------|1-----------------1------------------|
 |
 |Gtr. 3
 |
e|-------------------------------------|0------------------------------------|
B|---1--------------1------------------|---3--1-----------1------------------|
G|----------------------0--------------|---------------2--------2--0---------|
D|2------------------------------------|---------------------------------3---|
A|-------------------------------------|-------------------------------------|
E|-------------------------------------|-------------------------------------|

++++++++++++++++++++++++++++++++++++++++++++++++++++++++++++++++++++++++++++++

  Gtr. 1

e|--0--0--0--0--0--0--0--0--0--0--0--0-|0h1--1--1--1--1--1--1--1--1--1--1--1-|
B|1--------1--------1--------1---------|1--------1--------1--------1---------|
G|---0--2-----0--2-----0--2-----0--2---|---0--2-----0--2-----0--2-----0--2---|
D|-------------------------------------|-------------------------------------|
A|-------------------------------------|-------------------------------------|
E|-------------------------------------|-------------------------------------|
 |
 |Gtr. 2
 |
e|-------------------------------------|-------------------------------------|
B|-------------------------------------|-------------------------------------|
G|-------------------------------------|-------------------------------------|
D|------0--2-----0--------0--2-----0---|-------------------------------------|
A|3-----------------3------------------|------0--3-----0--------0--3-----0---|
E|-------------------------------------|1-----------------1------------------|
 |
 |Gtr. 3
 |
e|-------------------------------------|-------------------------------------|
B|---------------------------1---------|-------------------------------------|
G|---------0-----2--0--------------2---|0--------------------------------0-h2|
D|2-----3-----------------3------------|-------------------------------------|
A|-------------------------------------|-------------------------------------|
E|-------------------------------------|-------------------------------------|


++++++++++++++++++++++++++++++++++++++++++++++++++++++++++++++++++++++++++++++

  Gtr. 1

e|0-------0----------------------------|--0--0--0--0--0--0--0--0--0--0--0--0-|
B|1-------1-----------------0--------1-|1--------1--------1--------1---------|
G|-----2-----2----------0---------2----|---0--2-----0--2-----0--2-----0--2---|
D|--2-----------2---2---------3--------|-------------------------------------|
A|-------------------------------------|-------------------------------------|
E|-------------------------------------|-------------------------------------|
 |
 |Gtr. 2
 |
e|-------------------------------------|-------------------------------------|
B|-------------------------------------|-------------------------------------|
G|-------------------------------------|-------------------------------------|
D|---2--------0--2---------------------|------0--2-----0--------0--2-----0---|
A|0-----0--3---------------2-------3---|3-----------------3------------------|
E|------------------0---------1--------|-------------------------------------|
 |
 |Gtr. 3
 |
e|-------------------------------------|-------------------------------------|
B|-------------------------------------|---1--------------1---------1--------|
G|(2)---------------0------------------|------------------------2--------2---|
D|---------------------3--2--3---------|-------------------------------------|
A|---------------------------------3---|3------------------------------------|
E|-------------------------------------|-------------------------------------|

++++++++++++++++++++++++++++++++++++++++++++++++++++++++++++++++++++++++++++++


  Gtr. 1

e|--1--1--1--1--1--1--1--1--1--1--1--1-|--0--0--0--0--0--0--0--0--0--0--0--0-|
B|1--------1--------1--------1---------|1--------1--------1--------1---------|
G|---0--2-----0--2-----0--2-----0--2---|---0--2-----0--2-----0--2-----0--2---|
D|-------------------------------------|-------------------------------------|
A|-------------------------------------|-------------------------------------|
E|-------------------------------------|-------------------------------------|
 |
 |Gtr. 2
 |
e|-------------------------------------|-------------------------------------|
B|-------------------------------------|-------------------------------------|
G|-------------------------------------|-------------------------------------|
D|-------------------------------------|------0--2-----0--------0--2-----0---|
A|------0--3-----0--------0--3-----0---|3-----------------3------------------|
E|1-----------------1------------------|-------------------------------------|
 |
 |Gtr. 3
 |
e|0------------------------------------|-------------------------------------|
B|---3--1-----------1------------------|---1--------------1---------1--------|
G|---------------2--------2--0---------|---------------------0--2------0--2--|
D|---------------------------------3---|-------------------------------------|
A|-------------------------------------|3------------------------------------|
E|-------------------------------------|-------------------------------------|

++++++++++++++++++++++++++++++++++++++++++++++++++++++++++++++++++++++++++++++


  Gtr. 1

e|--1--1--1--1--1--1--1--1--1--1--1--1-|--0--0--0--0--0--0--0--0--0--0--0--0-|
B|1--------1--------1--------1---------|1--------1--------1--------1---------|
G|---0--2-----0--2-----0--2-----0--2---|---0--2-----0--2-----0--2-----0--2---|
D|-------------------------------------|-------------------------------------|
A|-------------------------------------|-------------------------------------|
E|-------------------------------------|-------------------------------------|
 |
 |Gtr. 2
 |
e|-------------------------------------|-------------------------------------|
B|-------------------------------------|-------------------------------------|
G|-------------------------------------|-------------------------------------|
D|-------------------------------------|------0--2-----0--------0--2-----0---|
A|------0--3-----0--------0--3-----0---|3-----------------3------------------|
E|1-----------------1------------------|-------------------------------------|
 |
 |Gtr. 3
 |
e|0------------------------------------|-------------------------------------|
B|---3--1-----------1------------------|-------------------------------------|
G|---------------2--------2--0---------|-------------------------------------|
D|---------------------------------3---|-------------------------------------|
A|-------------------------------------|3------------------------------------|
E|-------------------------------------|-------------------------------------|

++++++++++++++++++++++++++++++++++++++++++++++++++++++++++++++++++++++++++++++

  Gtr. 1

e|--1--1--1--1--1--1--1--1--1--1--1--1-|0-------0----------------------------|
B|1--------1--------1--------1---------|1-------1-----------------0--------1-|
G|---0--2-----0--2-----0--2-----0--2---|-----2-----2----------0---------2----|
D|-------------------------------------|--2-----------2---2---------3--------|
A|-------------------------------------|-------------------------------------|
E|-------------------------------------|-------------------------------------|
 |
 |Gtr. 2
 |
e|-------------------------------------|-------------------------------------|
B|-------------------------------------|-------------------------------------|
G|-------------------------------------|-------------------------------------|
D|-------------------------------------|---2--------0--2---------------------|
A|------0--3-----0--------0--3-----0---|0-----0--3---------------2-------3---|
E|1-----------------1------------------|------------------0---------1--------|
 |
 |Gtr. 3
 |
e|-------------------------------------|-------------------------------------|
B|-------------------------------------|-------------------------------------|
G|-------------------------------------|-------------------------------------|
D|-------------------------------------|-------------------------------------|
A|-------------------------------------|-------------------------------------|
E|-------------------------------------|-------------------------------------|

++++++++++++++++++++++++++++++++++++++++++++++++++++++++++++++++++++++++++++++

  Gtr. 1

e|0--------------------------------------------------------------------------|
B|1--------------------------------------------------------------------------|
G|---------------------------------------------------------------------------|
D|---------------------------------------------------------------------------|
A|---------------------------------------------------------------------------|
E|---------------------------------------------------------------------------|
 |
 |Gtr. 2
 |
e|---------------------------------------------------------------------------|
B|---------------------------------------------------------------------------|
G|---------------------------------------------------------------------------|
D|---------------------------------------------------------------------------|
A|3--------------------------------------------------------------------------|
E|---------------------------------------------------------------------------|
 |
 |Gtr. 3
 |
e|---------------------------------------------------------------------------|
B|---------------------------------------------------------------------------|
G|---------------------------------------------------------------------------|
D|---------------------------------------------------------------------------|
A|---------------------------------------------------------------------------|
E|---------------------------------------------------------------------------|

++++++++++++++++++++++++++++++++++++++++++++++++++++++++++++++++++++++++++++++
END
++++++++++++++++++++++++++++++++++++++++++++++++++++++++++++++++++++++++++++++


Hmm, if you even try to play gtr 1 and 2 together it'd be a variation of this! yuck

e|--0--0--0--0--0--0--0--0--0--0--0--0-|0h1--1--1--1--1--1--1--1--1--1--1--1-|
B|1--------1--------1--------1---------|1--------1--------1--------1---------|
G|---0--2-----0--2-----0--2-----0--2---|---0--2-----0--2-----0--2-----0--2---|
D|------0--2-----0--------0--2-----0---|-------------------------------------|
A|3-----------------3------------------|------0--3-----0--------0--3-----0---|
E|-------------------------------------|1-----------------1------------------|


| /  slide up
| \  slide down
| h  hammer-on
| p  pull-off
| ~  vibrato
| +  harmonic
| x  Mute note
===============================================================================





Comments


Popular Badly Drawn Boy tabs & chords
Once Around The Block Bass Tabs
Silent Sigh Bass Tabs
Cause A Rockslide Chords
Everybodys Stalking 1 Chords
Just Look At Us Now Chords
Stone On The Water Tabs
40 Days And 40 Fights Ukulele
A Journey From A To B Ukulele
Shining Ukulele
This Is That New Song Ukulele


Song lyrics



↑ Back to top | Tablatures and chords are parodies/interpretations of the original songs. You may use it for private study, scholarship, research or language learning purposes only
© 2014 AZChords.com Contact us | Privacy policy | DMCA | Add/correct tabs | Request tabs | Top 50 tabs