» » »

Badly Drawn Boy, Cause A Rockslide Chords (ver.1)

Artists:  A B C D E F G H I J K L M N O P Q R S T U V W X Y Z # 

Cause A Rockslide Chords (ver.1)

Badly Drawn Boy Tabs
 Rating:
4/5 (4 votes)
Cause A Rockslide lessons Tabs too difficult? Try these video lessons and learn fast
                ---------------------------------------------------------------------
                 CAUSE A ROCKSLIDE : Badly Drawn Boy
---------------------------------------------------------------------

Tuning: standard

Chords
      E   C#m   A    Eprog
e|--------(4)---7----------------------------------------------------|
B|----9----5----5--------7---9---7----------7------------------------|
G|----9----6----6----9---9---9---9---9--9---9------------------------|
D|----9----6----7----9---9---9---9---9--9---9------------------------|
A|----7----4---------7---7---7---7---7—-7---7------------------------|
E|-------------------------------------------------------------------|

Note: Eprog is just my ingenious way of echoing the main riff whilst strumming the 
E chord. Once you’ve established a strum pattern for the E, you need to keep it 
whilst performing this progression.

Main Riff
     E                   C#m
e|---0--2--4--2--0--0--2--4--4--4------------------------------------

note: This is just to illustrate when to change chords



E                      C#m
Can I get close to ya
    E                C#m
If only for a while
E                         C#m
I don't need to busy you
E                                       C#m         
You're the jive guru and I want to sing along with 
Eprog         C#m
You
     Eprog          C#m
With you
     Eprog                        C#m
Your sweetness, would cause a rockslide
   Eprog                 C#m
If only before the summertime
Eprog                      C#m
This could be our last goodbye
Eprog                       C#m
Please darling please don't cry
A                    C#m
Ooooooooooooooooooh  yeah


Other little riff
e|-------------------------------------------------------------------|
B|---------2----------2----------------------------------------------|
G|---4--5-------4--5--------1--2-------------------------------------|
D|-----------------------4-------------------------------------------|
A|-------------------------------------------------------------------|
E|-------------------------------------------------------------------|
            
Submit corrections

comments powered by Disqus
↑ Back to top | Badly Drawn Boy Chords for Cause A Rockslide. Lyrics for acoustic guitar and electric guitar. Tablatures and chords are parodies/interpretations of the original songs. You may use it for private study, scholarship, research or language learning purposes only