» » »

Bewilderbeast Tabs (ver.1)

Artists:  A B C D E F G H I J K L M N O P Q R S T U V W X Y Z # 

Bewilderbeast Tabs (ver.1)

Badly Drawn Boy
Rating:
0/5 (0 votes)

Hard to play? Try these video lessons and learn fast.
                
Original tabs by Jeff Best


First of all, I would like to say that I am a beginner guitar player. I 

have only been playing for a short time, but I have been told I have a 

good ear. This is a basically easy song for guitar, except for the end 

with the chords and strumming... I haven't started looking at that yet. 

The first thing you want to do is tune DOWN your last string to a D. I 

had to adjust this so that during the electric guitar part in the middle 

you're able to reach the lowest note. That's about it. The song is 

completely instrumental, and broken down into about 4 main sections. 

These are the first 3 in order. Listen to the song, you'll pick it up 


REMEMBER TO TUNE DOWN YOUR 6TH STRING TO !!D!!

* = hammer

First part, play quickly, play twice.


|-------------------------------------1*-------------|
|---------0-1---0-------3---1-0------------3-1-0-----|
|-------0---------0---0---------0---0------------0---|	  2X	
|-0---0-------0-----0-----0-------0------0---------0-|
|----------------------------------------------------|
|---5------------------------------------------------|


Second part, play quickly as well, play twice as well.

|------------------------------|
|-------0--------------0-----0-|
|-----0-------0-2----0------0--|			  2X
|-2-4-----2-4-----2-4----2-4---|
|------------------------------|
|------------------------------|


Third part, get the rhythme from listening to the song. Play 4 times.

|---------------|
|---------------|
|---------------|				  4X
|---------------|
|------3-2------|
|-5-2-0-----5-5-|
            
Hard to play? Try these video lessons and learn fast. | Correct




comments powered by Disqus
↑ Back to top | Tablatures and chords are parodies/interpretations of the original songs. You may use it for private study, scholarship, research or language learning purposes only