» » »

Badfinger, No Matter What Tabs (ver.4)

Artists:  A B C D E F G H I J K L M N O P Q R S T U V W X Y Z # 

No Matter What Tabs (ver.4)

Badfinger Tabs
Rating:
0/5 (0 votes)
No Matter What lessons Tabs too difficult? Try these video lessons and learn fast
                -------------------------------------------------------------------------------
-------------------------------------------------------------------------------


Tuning:Standard

                It might not be 100% right but it sounds right.Just listen to the 
song to get the timing and stuff.

G|---------------------------------------------------------------------------|
D|----13h14\7----------7-77---7-77------------------------------7-77---------|
A|-------------------------7------7------9------9---5--7--5--7------567------|
E|-----------------------------------7-77---7-77-----------------------------|

G|---------------------------------------------------------------------------|
D|----7-77---7-77------------9h11-9------------------7-77---6h7776h777777----|
A|--------7------7------9----------12-9--5--7--5--7------7-------------------|
E|------------------7-77---7-------------------------------------------------|

G|---------------------------------------------------------------------------|
D|---------------------------77777-7-------4---------6h7776h77777------------|
A|---99999999--------77777777-----7-7555555-5------------------------7797----|
E|-----------77777777------------------------77777777------------5599--------|

G|---------------------------9-----------------------------------------------|
D|----------------------------977777777----------------55555554--------------|
A|---99999999-------9-7777777----------55555554----------------7-------------|
E|-----------7777777-7-------------------------77777777----------------------|

G|---------------------------------------------------------------------------|
D|---7-77---7-77------------9h11-9------------------7-77---6h77777777--------|
A|-------7------7------9----------12-9--5--7--5--7------7--------------------|
E|-----------------7-77---7--------------------------------------------------|

G|---------------------------------------------------------------------------|
D|---7-77---7-77------------------------------7-77---6h7776h777777-----------|
A|-------7------7------9------9---5--7--5--7------7--------------------------|
E|-----------------7-77---7-77-----------------------------------------------|

G|---------------------------------------------------------------------------|
D|--------------------------777777-7-----4----------6h7776h77777-------------|
A|--99999999--------77777777------7-55555-54------------------------7797-----|
E|----------77777777------------------------77777777------------5599---------|

G|---------------------------------------------------------------------------|
D|--------------------------77777-7-----------------55555554-----------------|
A|--99999999--------77777777-----7-755555554----------------7----------------|
E|----------77777777------------------------77777777-------------------------|

G|---------------------------------------------------------------------------|
D|--7-77---7-77------------9h11-9-----------------7-77--7--------------------|
A|------7------7------9----------12\---5--7--5--7-----7----------------------|
E|----------------7-77---7---------------------------------------------------|

G|---------------------------------------------------------------------------|
D|----------------7-77---7-77----------------7-77---7------------------------|
A|---5--7--5--7-------7------7--5--7--5--7-------7---------------------------|
E|---------------------------------------------------------------------------|


| /  slide up
| \  slide down
| h  hammer-on
| p  pull-off
| ~  vibrato
| +  harmonic
| x  Mute note
            

comments powered by Disqus
↑ Back to top | Badfinger Tabs for No Matter What. Lyrics for acoustic guitar and electric guitar. Tablatures and chords are parodies/interpretations of the original songs. You may use it for private study, scholarship, research or language learning purposes only