>
 >
Time Stood Still

Time Stood Still Guitar Tabs

Bad English - Time Stood Still chords, tabs, tablatures, lyrics

Guitar lessons | Add/correct | Request | Top 50 tabs Artists:  A B C D E F G H I J K L M N O P Q R S T U V W X Y Z 0-9

Time Stood Still Guitar Tabs – Bad English

CD, Sheet music, Poster

Do you like Time Stood Still? Share with your friends now
ChordsTabs
Time stood still  Bad English

Solo guitar intro: scroll down

Intro:
|Bm   A/C#    |G/D       |Bm   A      |G         |
|Bm   A/C#    |G/D       |Bm   A      |G         |

    Bm                A                 G     
The first time that I saw you, you were dancin' on the beach
Bm        A              G          
Poetry in motion but you seemed so out of reach
        F#m                            G        A          Bm     A   G
And the waves were breakin' 'round you   in the California sunset 
  Bm             A            G
I made a wish to know you and touch your golden hair
    Bm                A                G
You turned around and looked at me and paradise was there
F#m                 G       A          E
Baby I remember the way you took my hand, yesterday 


Bm   A     E
Time stood still
      D                       E
As we walked into the night together
Bm       A/C#  G/D                    E
The memory is locked in our hearts forever
   F#
It seems just like yesterday

|Bm    A    |G            |Bm    A    |G       |
                Time stood still


   Bm             A           G 
We found a little seaside bar high above the rocks
Bm                A              G
You were drinking white wine and I was doing shots
  F#m
I wondered if you'd stay the night 
G        A          E
You just took my hand and led the way 


Bm   A     E
Time stood still
      D                             E
As we made love through the night together
Bm       A/C#  G/D                    E
The memory is locked in our hearts forever
Bm   A     E
Time stood still
Bm   A     E
Time stood still
Bm       A/C#  G/D                    E
The memory is locked in our hearts forever, oh yeah 


B/D#                    A/C#
I thought that I'd seen love before
         A                         C#m7      A        
But what you showed me well that's something more
B                                A
Love found two strangers walking on the shore
             G                              A                     
We threw our watches in the sea I looked at you you looked at me
F#
And time stood still 


Solo:
|Bm    A    |G       |Bm    A    |G       |
|Bm    A    |G       |Bm    A    |G       |


Bm         A          G
We made a fire on the beach that night
    Bm                   A             G
And watched the seagulls circle in the morning light
F#m
Maybe there are some things
          G        A       E
we're not meant to understand, anyway 


Bm   A     E
Time stood still
    D               E
But love goes on forever
Bm       A/C# G/D                     E
The memory is burned in our hearts forever, oh yes
Bm   A     E
Time stood still
    D                A        E
The moment's gone forever But I will love you till
Bm   A/C#   G/D                    E  
Time stands still in our hearts forever,  oh yeah


Bm   A     E
Time stood still
Bm   A     E
Time stood still
Bm   A/C#   G/D                    E
Time stands still in our hearts forever, seems just like yesterday 

Bm   A     E
Time stood still
Bm   A     E
Time stood still
Bm   A/C#  G/D       E
Time stood still, forever 



 
---------------------------------------------------------------------------
                     Tome Stood Still (intro)  - Bad English
---------------------------------------------------------------------------


Tuning:
   |   |   |   |      |   |   |   |      |   |   |   |      |   |   |   |   
e|-----2------------|-2----------------|-----2------------|-0---------------|
B|-----3-5-3-2-3----|-2----------------|-----3-5-3-2-3----|-0---------------|
G|-----4------------|-3----------------|-----4------------|-1---------------|
D|------------------|------------------|------------------|-----------------|
A|-2----------------|-1----------------|-0----------------|-----------------|
E|------------------|------------------|------------------|-4---------------|


   |   |   |   |      |   |   |     |    |   |   |   |      |   |   |   |   
e|---0---2---3------|-3----2-0---------|-------------0----|-2---------------|
B|---1--------------|-0-------3--2-0---|---------0--------|-2---------------|
G|---0--------------|-0----------------|-----1------------|-3---------------|
D|------------------|------------------|-2----------------|-4---------------|
A|-3----------------|------------------|------------------|-4---------------|
E|------------------|-3----------------|------------------|-2---------------|


   |   |   |   |      |   |   |   |      |   |   |   |      |   |   |   |   
e|-----2------------|-2----------------|-----2------------|-0---------------|
B|-----3-5-3-2-3----|-2----------------|-----3-5-3-2-3----|-0---------------|
G|-----4------------|-3----------------|-----4------------|-1---------------|
D|------------------|------------------|------------------|-----------------|
A|-2----------------|-1----------------|-0----------------|-----------------|
E|------------------|------------------|------------------|-4---------------|


   |   |   |   |      |   |   |   |      |   |   |   |      |   |   |   |   
e|---0---2---3------|-3-------4---5-7--|-8---7---5---4----|---------4---5-7-|
B|---1--------------|-0----------------|-8---8---7---5----|-----------------|
G|---0--------------|-0-----/6--6------|-9---7---7---4----|-------6---------|
D|------------------|------------------|-7---9---7---6----|-----------------|
A|-3----------------|------------------|------------------|-----------------|
E|------------------|-3----------------|------------------|-----------------|


   |   |   |   |     
e|-8---7---5---4----|
B|-8---8---7---5----|
G|-9---7---7---4----|
D|-7---9---7---6----|
A|------------------|
E|------------------|



| /  slide up
| \  slide down
| h  hammer-on
| p  pull-off
| ~  vibrato
| +  harmonic
| x  Mute note
=============================================================================





Comments


Popular Bad English tabs & chords
Don't Walk Away Chords
Price Of Love Chords
Time Stood Still Chords
When I See You Smile Chords
Straight To Your Heart Tabs
Time Stood Still Intro Tabs
When I See You Smile Tabs
Dont Walk Away Ukulele
Price Of Love Ukulele
When I See You Smile Ukulele


Song lyrics



↑ Back to top | Tablatures and chords are parodies/interpretations of the original songs. You may use it for private study, scholarship, research or language learning purposes only
© 2014 AZChords.com Contact us | Privacy policy | DMCA | Add/correct tabs | Request tabs | Top 50 tabs