» » »

Straight To Your Heart Tabs (ver.1)

Artists:  A B C D E F G H I J K L M N O P Q R S T U V W X Y Z # 

Straight To Your Heart Tabs (ver.1)

Bad English
Rating:
0/5 (0 votes)

Hard to play? Try these video lessons and learn fast.
                i have just tabbed out the things i can. i would be happy if someone tabbed out
the rest :) and correct any mistakes.

intro
E|-------8-----8-------------------------------------------------|
B|-6-6-6---6-6---6-6-------9-----9-------------------------------|
G|-------------------6-6-6---6-6---------8-----8-------10-----10-| X1
D|---------------------------------6-6-6---6-6---8-8-8----8-8----|
A|---------------------------------------------------------------|
E|---------------------------------------------------------------|

vers
E|-------------------------------|
B|---------------------------8h9-|
G|------10-----6-----------8-----| X3
D|---10------6-------6---8-------|
A|-8-------4-------6---6---------|
E|---------------4---------------|
            
Hard to play? Try these video lessons and learn fast. | Correct




comments powered by Disqus
↑ Back to top | Tablatures and chords are parodies/interpretations of the original songs. You may use it for private study, scholarship, research or language learning purposes only