» » »

Bad Dogs, When You Cry Tabs (ver.1)

Artists:  A B C D E F G H I J K L M N O P Q R S T U V W X Y Z # 

When You Cry Tabs (ver.1)

Bad Dogs Tabs
Rating:
0/5 (0 votes)
When You Cry lessons Tabs too difficult? Try these video lessons and learn fast
                Intro Verseplay 8x
e|--------------------------------------------------------------|
B|--------------------------------------------------------------|
G|--7-7-7-7-----------9-9-9-----------7-7-7-7--9-9-9-9-9-9-9-9--|
D|--7-7-7-7--7-7-7-7--9-9-9--9-9-9-9--7-7-7-7--9-9-9-9-9-9-9-9--|
A|--5-5-5-5--7-7-7-7--7-7-7--9-9-9-9--5-5-5-5--7-7-7-7-7-7-7-7--|
E|-----------5-5-5-5---------7-7-7-7----------------------------|

Chorus pay 4x
e|--------------------------------------------------------------|
B|--------------------------------------------------------------|
G|--7-7-7-7-----------9-9-9-----------7-7-7-7--9-9-9-9-9-9-9-9--|
D|--7-7-7-7-7-7-7-7---9-9-9-9-9-9-9---7-7-7-7--9-9-9-9-9-9-9-9--|
A|--5-5-5-5-7-7-7-7---7-7-7-9-9-9-9---5-5-5-5--7-7-7-7-7-7-7-7--|
E|----------5-5-5-5---------7-7-7-7-----------------------------|

Verse play 7x
e|--------------------------------------------------------------|
B|--------------------------------------------------------------|
G|--7-7-7-7-----------9-9-9-----------7-7-7-7--9-9-9-9-9-9-9-9--|
D|--7-7-7-7--7-7-7-7--9-9-9--9-9-9-9--7-7-7-7--9-9-9-9-9-9-9-9--|
A|--5-5-5-5--7-7-7-7--7-7-7--9-9-9-9--5-5-5-5--7-7-7-7-7-7-7-7--|
E|-----------5-5-5-5---------7-7-7-7----------------------------|

Chorusplay 4x
e|--------------------------------------------------------------|
B|--------------------------------------------------------------|
G|--7-7-7-7-----------9-9-9-----------7-7-7-7--9-9-9-9-9-9-9-9--|
D|--7-7-7-7-7-7-7-7---9-9-9-9-9-9-9---7-7-7-7--9-9-9-9-9-9-9-9--|
A|--5-5-5-5-7-7-7-7---7-7-7-9-9-9-9---5-5-5-5--7-7-7-7-7-7-7-7--|
E|----------5-5-5-5---------7-7-7-7-----------------------------|

Verse play 5x
e|--------------------------------------------------------------|
B|--------------------------------------------------------------|
G|--7-7-7-7-----------9-9-9-----------7-7-7-7--9-9-9-9-9-9-9-9--|
D|--7-7-7-7--7-7-7-7--9-9-9--9-9-9-9--7-7-7-7--9-9-9-9-9-9-9-9--|
A|--5-5-5-5--7-7-7-7--7-7-7--9-9-9-9--5-5-5-5--7-7-7-7-7-7-7-7--|
E|-----------5-5-5-5---------7-7-7-7----------------------------|

Solo
e|6p5-5-4-4-----------5-5-3-3-----------5-5-3-3p2p0-------------3h5-5-7-7p5----------------------|
B|----------5-5p4-5p4---------5-5p4-5p4-------------3p2p0-4-5-5-------------5-5-3-3p2p0----------|
G|-------------------------------------------------------------------------------------3p2p0-----|
D|------------------------------------------------------------------------------------------3p2p0|
A|-----------------------------------------------------------------------------------------------|
E|-----------------------------------------------------------------------------------------------|

Chorusplay 8x
e|--------------------------------------------------------------|
B|--------------------------------------------------------------|
G|--7-7-7-7-----------9-9-9-----------7-7-7-7--9-9-9-9-9-9-9-9--|
D|--7-7-7-7-7-7-7-7---9-9-9-9-9-9-9---7-7-7-7--9-9-9-9-9-9-9-9--|
A|--5-5-5-5-7-7-7-7---7-7-7-9-9-9-9---5-5-5-5--7-7-7-7-7-7-7-7--|
E|----------5-5-5-5---------7-7-7-7-----------------------------|
            
Submit corrections

comments powered by Disqus
↑ Back to top | Bad Dogs Tabs for When You Cry. Lyrics for acoustic guitar and electric guitar. Tablatures and chords are parodies/interpretations of the original songs. You may use it for private study, scholarship, research or language learning purposes only