» » »

Bad Dogs, Vagina Gun Tabs (ver.2)

Artists:  A B C D E F G H I J K L M N O P Q R S T U V W X Y Z # 

Vagina Gun Tabs (ver.2)

Bad Dogs Tabs
 Rating:
3.8/5 (5 votes)
Vagina Gun lessons Tabs too difficult? Try these video lessons and learn fast
                Bad Dogs


Normal Tuning
Intro
|-------------------------------------------------|
|-------------------------------------------------|
|-------------------------------------------------|
|-----------------------------------------x-x-x-x-|
|-2-2-2-2-2-2-2-2-2-2-4-4-4-4-4-4-4-4-4-4-x-x-x-x-|
|-0---------0-0-------2---------2-2-------2-2-2-2-|

Verse
|-------------------------------------------------------|
|-------------------------------------------------------|
|-------------------------------------------------------|
|---2-2-2-2-----2-2-2---4-4-4-4-----4-4-4-x-x-x-x-x-x-x-|
|-2-2-2-2-2-2-2-2-2-2-4-4-4-4-4-4-4-4-4-4-x-x-x-x-x-x-x-|
|-0---------0-0-------2---------2-2-------2-2-2-2-2-3-3-|

chorus
|-------------------------------------------------------------------|
|-------------------------------------------------------------------|
|-------2-2-2-2-------2-2-2-------4-4-4-4-------4-4-4---------------|
|-2-2-2-2-2-2-2-2-2-2-2-2-2-4-4-4-4-4-4-4-4-4-4-4-4-4-x-x-x-x-x-x-x-|
|-2-2-2-0-0-0-0-2-2-2-0-0-0-4-4-4-2-2-2-2-4-4-4-2-2-2-x-x-x-x-x-x-x-|
|-0-0-0---------0-0-0-------2-2-2---------2-2-2-------2-2-2-2-2-4-4-|


Verse
|-------------------------------------------------------|
|-------------------------------------------------------|
|-------------------------------------------------------|
|---2-2-2-2-----2-2-2---4-4-4-4-----4-4-4-x-x-x-x-x-x-x-|
|-2-2-2-2-2-2-2-2-2-2-4-4-4-4-4-4-4-4-4-4-x-x-x-x-x-x-x-|
|-0---------0-0-------2---------2-2-------2-2-2-2-2-3-3-|

chorus
|-------------------------------------------------------------------|
|-------------------------------------------------------------------|
|-------2-2-2-2-------2-2-2-------4-4-4-4-------4-4-4---------------|
|-2-2-2-2-2-2-2-2-2-2-2-2-2-4-4-4-4-4-4-4-4-4-4-4-4-4-x-x-x-x-x-x-x-|
|-2-2-2-0-0-0-0-2-2-2-0-0-0-4-4-4-2-2-2-2-4-4-4-2-2-2-x-x-x-x-x-x-x-|
|-0-0-0---------0-0-0-------2-2-2---------2-2-2-------2-2-2-2-2-4-4-|

Verse
|-------------------------------------------------------|
|-------------------------------------------------------|
|-------------------------------------------------------|
|---2-2-2-2-----2-2-2---4-4-4-4-----4-4-4-x-x-x-x-x-x-x-|
|-2-2-2-2-2-2-2-2-2-2-4-4-4-4-4-4-4-4-4-4-x-x-x-x-x-x-x-|
|-0---------0-0-------2---------2-2-------2-2-2-2-2-3-3-|

chorus
|-------------------------------------------------------------------|
|-------------------------------------------------------------------|
|-------2-2-2-2-------2-2-2-------4-4-4-4-------4-4-4---------------|
|-2-2-2-2-2-2-2-2-2-2-2-2-2-4-4-4-4-4-4-4-4-4-4-4-4-4-x-x-x-x-x-x-x-|
|-2-2-2-0-0-0-0-2-2-2-0-0-0-4-4-4-2-2-2-2-4-4-4-2-2-2-x-x-x-x-x-x-x-|
|-0-0-0---------0-0-0-------2-2-2---------2-2-2-------2-2-2-2-2-4-4-|

Outro
|--------------------------------------------|
|--------------------------------------------|
|--------------------------------------------|
|---2-2-2-2-----4-4-4-4----------------------|
|-2-2-2-2-2-2-2-2-2-2-2-4-4-4-4-4-4-4-4-4-4--|
|-0---------0-0---------2-2------------------|
            
Submit corrections

comments powered by Disqus
↑ Back to top | Bad Dogs Tabs for Vagina Gun. Lyrics for acoustic guitar and electric guitar. Tablatures and chords are parodies/interpretations of the original songs. You may use it for private study, scholarship, research or language learning purposes only