>
 >
This Aint No Country Song

This Aint No Country Song Guitar Tabs

Bad Dogs - This Aint No Country Song chords, tabs, tablatures, lyrics

Guitar lessons | Add/correct | Request | Top 50 tabs Artists:  A B C D E F G H I J K L M N O P Q R S T U V W X Y Z 0-9

This Aint No Country Song Guitar Tabs – Bad Dogs

CD, Sheet music, Poster

Do you like This Aint No Country Song? Share with your friends now
Tabs
Intro

E|-----------------------------------------------------------|
B|-----------------------------------------------------------|
G|----4---------4---------4---------4------------------------|
D|----4----2----4----4----4----2----4----4444444444444444----|
A|----2----2----2----4----2----2----2----4444444444444444----|
E|---------0---------2---------0---------2222222222222222----|


Bridge

  ----------------------------------------------------------------------|
  ----------------------------------------------------------------------|
  --4444444444444444--------------------4--/--6--6--/--8--8--/--11--11--|
  --4444444444444444--2222222222222222----------------------------------|
  --2222222222222222--2222222222222222--2--/--4--4--/--6--6--/--9---9---|
  --------------------0000000000000000----------------------------------|

				     x2
  -----------------------------------|----|
  -----------------------------------|----|
  ------------9--9--9--\--8--\--6----|----|
  --44444444-------------------------|----|
  --44444444--7--7--7--\--6--\--4----|----|
  --22222222-------------------------|----|


Verses
                                                                          x2
  -------------------------------------------------------------------------|
  -------------------------------------------------------------------------|
  -4444444444444444--------------------4444444444444444--------------------|
  -4444444444444444--2222222222222222--4444444444444444--4444444444444444--|
  -2222222222222222--2222222222222222--2222222222222222--4444444444444444--|
  -------------------0000000000000000--------------------2222222222222222--|
  |__________________________________PM____________________________________|

Chorus
(play this bar once)

  ---------------------------------------------------------------------|----|
  ---------------------------------------------------------------------|----|
  ---------------------------------4444--4444--4444--------------------|----|
  -6666--6666--66662222--2222--22224444--4444--44444444--4444--4444----|----|
  -6666--6666--66662222--2222--22222222--2222--22224444--4444--4444----|----|
  -4444--4444--44440000--0000--0000----------------2222--2222--2222----|----|

(Lyrics start)
                                                                         x2
  -----------------------------------------------------------------------|--|
  -----------------------------------------------------------------------|--|
  ----------------------------------4444444444444444---------------------|--|
  -6666--6666--66662222--2222--2222-4444444444444444-4444444444444444----|--|
  -6666--6666--66662222--2222--2222-2222222222222222-4444444444444444----|--|
  -4444--4444--44440000--0000--0000------------------2222222222222222----|--|


Bridge
Verse 2
Chorus 2


Solo 1 (Guitar 1)
(Guitar 2 plays Chorus Riff)
                                                                        x2
  ----------------------------------------------------------------------|---|
  ----------------------------------------------------------------------|---|
  ----------------------------------------------------------------------|---|
  --6-4h6/(8)-6h8/(9)-8h9/(11)----11-9h11/(13)-11h13/(14)-13h14/(16)----|---|
  ----------------------------------------------------------------------|---|
  ----------------------------------------------------------------------|---|

After 1st time play this
                                               ~~~~~~~~~
  -------------------------------------------------------|----|
  -------------------------------------------------------|----|
  --11-9-8-------------8----8-9-11----11b(13)--11--------|----|
  ---------11-9-8-9-11---11------------------------------|----|
  -------------------------------------------------------|----|
  -------------------------------------------------------|----|

After 2nd time play this
                                                         ~~~    ~~~~~~~~~
  -------------------------------------------------------------------------|
  --------------------------------------------12---------------------------|
  --11-9-8-------------8----8-9-11----11b(13)----11b(13)-11--/--16---------|
  ---------11-9-8-9-11---11------------------------------------------------|
  -------------------------------------------------------------------------|
  -------------------------------------------------------------------------|





Comments


Popular Bad Dogs tabs & chords
Blurthy Bass Tabs
Hey She Is Just A Hoe 2 Bass Tabs
Duck Tabs
I See Stars Tabs
Im A Lonely Little Fucker Tabs
Phosphoric Acid Tabs
Rider Tabs
Shee Deeder Tabs
Vagina Gun Tabs
When You Cry Tabs


Song lyrics



↑ Back to top | Tablatures and chords are parodies/interpretations of the original songs. You may use it for private study, scholarship, research or language learning purposes only
© 2014 AZChords.com Contact us | Privacy policy | DMCA | Add/correct tabs | Request tabs | Top 50 tabs