» » »

Phosphoric Acid Tabs (ver.1)

Artists:  A B C D E F G H I J K L M N O P Q R S T U V W X Y Z # 

Phosphoric Acid Tabs (ver.1)

Bad Dogs
Rating:
0/5 (0 votes)

Hard to play? Try these video lessons and learn fast.
                intro\verse\play with distrotion for chorus
-------------------------------------------------------------|
--------------------------------------------------0----------|
-0-0-------0-0------------------------0-0-------0---0--------|
-----1---1-----1---1-0-0-3-1-0------------1---1-------3-1-0--|
-------2---------2-------------2-2-2-2------2----------------|
-------------------------------------------------------------|

Solo
-5-5-5-5-5-5-5-----------------------------------------------|
---------------8-6-5-5-5-5-5-5-5-----------------------------|
----------------------------------7-5-4-4-4-7-5-4---5-4------|
--------------------------------------------------7-----7----|
-------------------------------------------------------------|
-------------------------------------------------------------|

--5-4-5-------------------5-4----------------5-5-8-8-8-8-8-5-------|
--------5-------------------------5---------------------------7-5--|
----------5--5-/9-9-9-9-\7-5---------5/9\7-5/9\7-------------------|
-------------------------------------------------------------------|
-------------------------------------------------------------------|
-------------------------------------------------------------------|
            
Hard to play? Try these video lessons and learn fast. | Correct




comments powered by Disqus
↑ Back to top | Tablatures and chords are parodies/interpretations of the original songs. You may use it for private study, scholarship, research or language learning purposes only