» » »

Bad Dogs, Lumber Bass tabs (ver.1)

Artists:  A B C D E F G H I J K L M N O P Q R S T U V W X Y Z # 

Lumber Bass tabs (ver.1)

Bad Dogs Tabs
Rating:
0/5 (0 votes)
Lumber lessons Tabs too difficult? Try these video lessons and learn fast
                Lumber(Bass Tab)
by
Bad Dogs

Tuning - Drop-D

Intro
G----------------------------------------------------------------------|
D----------------------------------------------------------------------|
A-------------------------2-2-0------------------------------2-2-0-----|
D-2-2-0-0-1--0-----0-0-0-2-------0-0-2-2-0-0-1--0-----0-0-0-2------0-0-|

Verse
G-------------------------------------|
D-------------------------------------|
A-----------------------------2-2-----|
D--2-2-0-0-1----0-0-0-0---2-2-----0-0-|

Chorus
G-------------------------------|
D-------------------------------|
A-6-6---------------------------|
D-----4-0-0-0-0-0-2-2--0-0--1-1-|

Outro
G---------------------------|
D---------------------------|
A-6-6-----------------------|
D-----4-0-0-0-0-0-0-0-0---0-|


Intro(play 1 times)
Verse(play 5 times)
Chorus(play 4 times)
Verse(play 5 times)
Chorus(play 4 times)
Verse(play 1 time during guitar solo)
Chorus(play 4 times)
Outro(play 1 times)
            
Submit corrections

comments powered by Disqus
↑ Back to top | Bad Dogs Bass for Lumber. Lyrics for acoustic guitar and electric guitar. Tablatures and chords are parodies/interpretations of the original songs. You may use it for private study, scholarship, research or language learning purposes only