» » »

Jimmy The Car Mechanic Tabs (ver.1)

Artists:  A B C D E F G H I J K L M N O P Q R S T U V W X Y Z # 

Jimmy The Car Mechanic Tabs (ver.1)

Bad Dogs
Rating:
0/5 (0 votes)

Hard to play? Try these video lessons and learn fast.
                Drop-D Tuning

Intro
|---------------------------------------------|
|---------------------------------------------|
|---------------------------------------------|
|---------------------------------------------|
|---------------------------------------------|
|-2-2-2-2-2--4-4-4-4-4--2-2-2-2-2--4-4-4-4-4--|

Verse
|----------------------------------------------------|
|----------------------------------------------------|
|----------------------------------------------------|
|-----------2------------4------------2------------4-|
|-----------2------------4------------2------------4-|
|-2-2-2-2-2-2--4-4-4-4-4-4--2-2-2-2-2-2--4-4-4-4-4-4-|

Pre Chorus
|--------------------------------------------------------------------|
|--------------------------------------------------------------------|
|--------------------------------------------------------------------|
|-2-2----------4-4-----------5-5----------7-7------------5-5---------|
|-2-2----------4-4-----------5-5----------7-7------------5-5---------|
|-2-2-2-2-2-2--4-4-4-4-4-4---5-5-5-5-5-5--7-7-7-7-7-7-7--5-5-5-5-5-5-|

Chorus
|-----------------------------------------------------------------------------|
|-----------------------------------------------------------------------------|
|-----------------------------------------------------------------------------|
|-----------2--x-x-x------------4-x-x-x------------2-x-x-x------------4-x-x-x-|
|-2-2-2-2-2-2--x-x-x--4-4-4-4-4-4-x-x-x--2-2-2-2-2-2-x-x-x--4-4-4-4-4-4-x-x-x-|
|-2-2-2-2-2-2--2-2-2--4-4-4-4-4-4-4-4-4--2-2-2-2-2-2-2-2-2--4-4-4-4-4-4-4-4-4-|

Verse
|----------------------------------------------------|
|----------------------------------------------------|
|----------------------------------------------------|
|-----------2------------4------------2------------4-|
|-----------2------------4------------2------------4-|
|-2-2-2-2-2-2--4-4-4-4-4-4--2-2-2-2-2-2--4-4-4-4-4-4-|

Pre Chorus
|--------------------------------------------------------------------|
|--------------------------------------------------------------------|
|--------------------------------------------------------------------|
|-2-2----------4-4-----------5-5----------7-7------------5-5---------|
|-2-2----------4-4-----------5-5----------7-7------------5-5---------|
|-2-2-2-2-2-2--4-4-4-4-4-4---5-5-5-5-5-5--7-7-7-7-7-7-7--5-5-5-5-5-5-|

Chorus
|-----------------------------------------------------------------------------|
|-----------------------------------------------------------------------------|
|-----------------------------------------------------------------------------|
|-----------2--x-x-x------------4-x-x-x------------2-x-x-x------------4-x-x-x-|
|-2-2-2-2-2-2--x-x-x--4-4-4-4-4-4-x-x-x--2-2-2-2-2-2-x-x-x--4-4-4-4-4-4-x-x-x-|
|-2-2-2-2-2-2--2-2-2--4-4-4-4-4-4-4-4-4--2-2-2-2-2-2-2-2-2--4-4-4-4-4-4-4-4-4-|

Solo
|-------------------------4-4-4-4-----------------|
|-2-2-2-2-3-3-3-3-5-5-5-5---------5-5-5-5-0-0-0-0-|
|-------------------------------------------------|
|-------------------------------------------------|
|-------------------------------------------------|
|-------------------------------------------------|

|--2-2-2-2-3-3-3-3-5-5-5-5-0-0-0-0-5-5-5-5-7-7-7-7-5-5-5-5-0-0-0-0-|
|-2-2-2-2-3-3-3-3-5-5-5-5-0-0-0-0-5-5-5-5-7-7-7-7-5-5-5-5-0-0-0-0--|
|------------------------------------------------------------------|
|------------------------------------------------------------------|
|------------------------------------------------------------------|
|------------------------------------------------------------------|

Verse
|----------------------------------------------------|
|----------------------------------------------------|
|----------------------------------------------------|
|-----------2------------4------------2------------4-|
|-----------2------------4------------2------------4-|
|-2-2-2-2-2-2--4-4-4-4-4-4--2-2-2-2-2-2--4-4-4-4-4-4-|

Pre Chorus
|--------------------------------------------------------------------|
|--------------------------------------------------------------------|
|--------------------------------------------------------------------|
|-2-2----------4-4-----------5-5----------7-7------------5-5---------|
|-2-2----------4-4-----------5-5----------7-7------------5-5---------|
|-2-2-2-2-2-2--4-4-4-4-4-4---5-5-5-5-5-5--7-7-7-7-7-7-7--5-5-5-5-5-5-|

Chorus
|-----------------------------------------------------------------------------|
|-----------------------------------------------------------------------------|
|-----------------------------------------------------------------------------|
|-----------2--x-x-x------------4-x-x-x------------2-x-x-x------------4-x-x-x-|
|-2-2-2-2-2-2--x-x-x--4-4-4-4-4-4-x-x-x--2-2-2-2-2-2-x-x-x--4-4-4-4-4-4-x-x-x-|
|-2-2-2-2-2-2--2-2-2--4-4-4-4-4-4-4-4-4--2-2-2-2-2-2-2-2-2--4-4-4-4-4-4-4-4-4-|
            
Hard to play? Try these video lessons and learn fast. | Correct




comments powered by Disqus
↑ Back to top | Tablatures and chords are parodies/interpretations of the original songs. You may use it for private study, scholarship, research or language learning purposes only