» » »

I See Stars Tabs (ver.1)

Artists:  A B C D E F G H I J K L M N O P Q R S T U V W X Y Z # 

I See Stars Tabs (ver.1)

Bad Dogs
Rating:
0/5 (0 votes)

Hard to play? Try these video lessons and learn fast.
                My first tab   I really wanna know what you think of it   even if you havent heard it I 
want your opinion

intro x2
|-----------------------------------------|
|-----------------------------------------|
|-----------------------------------------|
|---6-6---6-6---6-6-----6-6---6-6---6-6---|
|-7-4-4-7-4-4-7-4-4-7-7-4-4-7-4-4-7-4-4-7-|
|-5-----5-----5-----5-5-----5-----5-----5-|
p.m. the whole intro

verse x7
|-----------------------------------------|
|-----------------------------------------|
|---6-6---6-6---6-6-----6-6---6-6---6-6---|
|-7-6-6-7-6-6-7-6-6-7-7-6-6-7-6-6-7-6-6-7-|
|-7-4-4-7-4-4-7-4-4-7-7-4-4-7-4-4-7-4-4-7-|
|-5-----5-----5-----5-5-----5-----5-----5-|

chorus x2
|--------------------------------------|
|--------------------------------------|
|--6-----4-----6-----4-----6-----4-----|
|--6-----4-----6-----4-----6-----4-----|
|--4-----2-----4-----2-----4-----2-----|
|--------------------------------------|

end of chorus
|------------|
|------------|
|---6--4-----|
|---6--4--7--|
|---4--2--7--|
|---------5--|

verse x7
|-----------------------------------------|
|-----------------------------------------|
|---6-6---6-6---6-6-----6-6---6-6---6-6---|
|-7-6-6-7-6-6-7-6-6-7-7-6-6-7-6-6-7-6-6-7-|
|-7-4-4-7-4-4-7-4-4-7-7-4-4-7-4-4-7-4-4-7-|
|-5-----5-----5-----5-5-----5-----5-----5-|

chorus x2
|--------------------------------------|
|--------------------------------------|
|--6-----4-----6-----4-----6-----4-----|
|--6-----4-----6-----4-----6-----4-----|
|--4-----2-----4-----2-----4-----2-----|
|--------------------------------------|

end of chorus
|------------|
|------------|
|---6--4-----|
|---6--4--7--|
|---4--2--7--|
|---------5--|

solo
|--------------------------------------------------------------------|
|---------------------(7)----(7)----(7)-----(7)----(7)----(7)--------|
|-------------------8------8------8-----8-8------8------8-----8-8----|
|-----------------6--------------------------------------------------|
|--------6--8--9-----------------------------------------------------|
|--5--7--------------------------------------------------------------|

|------------------------------------------------------------------------|
|-------------7-7-7-7-7-7-7-7-7-7-7-7-7-7-(7)--7-------------------------|
|--(8)---(8)-8-8-8-8-8-8-8-8-8-8-8-8-8-8---------8--7--------------------|
|------------------------------------------------------8-7/5-------------|
|--------------------------------------------------------------7--5-4~~--|
|------------------------------------------------------------------------|

verse x9
|-----------------------------------------|
|-----------------------------------------|
|---6-6---6-6---6-6-----6-6---6-6---6-6---|
|-7-6-6-7-6-6-7-6-6-7-7-6-6-7-6-6-7-6-6-7-|
|-7-4-4-7-4-4-7-4-4-7-7-4-4-7-4-4-7-4-4-7-|
|-5-----5-----5-----5-5-----5-----5-----5-|
3rd verse is a little longer

chorus x4
|--------------------------------------|
|--------------------------------------|
|--6-----4-----6-----4-----6-----4-----|
|--6-----4-----6-----4-----6-----4-----|
|--4-----2-----4-----2-----4-----2-----|
|--------------------------------------|

end of chorus
|-------------------------------|
|-------------------------------|
|---6--4------------------------|
|---6--4--7----7-7-7---------7--|
|---4--2--7----7-7-7---------7--|
|---------5----5-5-5---------5--|
            
Hard to play? Try these video lessons and learn fast. | Correct




comments powered by Disqus
↑ Back to top | Tablatures and chords are parodies/interpretations of the original songs. You may use it for private study, scholarship, research or language learning purposes only